5:19

Matt Wertz

 Matt Wertz
Tom: E
		
Intro / Verso:
( I'd be lyin through my teeth.... that I'm ok.... )

       C#m7      B       A       E      C#m7      B     A
E|---------x--x--x--x-------x--x--x---|--------x--x--x--x--x--|
B|---------5--x--2--x-------2--x--0---|--------5--x--4--x--2--|
G|---------4--x--1--x-------2--x--1---|--------4--x--4--x--2--|
D|-----2---2--x--4--x----2-----x--2---|----2---2--x--4--x--2--|
A|---4---4----x-----x--0-------x--2---|--4---4----x--2--x--0--|
E|------------x--x--x----------x--0---|-----------x--x--x--x--|


Pré-Refrão:
( Until you said I need some space...    truth be told.... )

      F#m     A                          F#m         B
E|----2---2---x--x------------------|----2---2-------x---x---|
B|----2---2---2--2------------------|----2---2-------4---4---|
G|----2---2---2--2------------------|----2---2-------4---4---|
D|----4---4---2--2------------------|----4---4-------4---4---|
A|----4---4---0--0------------------|----4---4-------2---2---|
E|----2---2---x--x------------------|----2---2-------x---x---|


Refrão:

      E              G#m            A              F#m
E|----x--x--x---x----4--x--4---x----5--x--5---x----2--x--2--|
B|----9--x--9---x----4--x--4---x----5--x--5---x----2--x--2--|
G|----9--x--9---x----4--x--4---x----6--x--6---x----2--x--2--|
D|----9--x--9---x----6--x--6---x----7--x--7---x----4--x--4--|
A|----7--x--7---x----6--x--6---x----7--x--7---x----4--x--4--|
E|----x--x--x---x----4--x--4---x----5--x--5---x----2--x--2--|



      E              G#m             A           Am
E|----x--x--x---x----4--x--4---x----5--x--5---x----5--------|
B|----9--x--9---x----4--x--4---x----5--x--5---x----5--------|
G|----9--x--9---x----4--x--4---x----6--x--6---x----5--------|
D|----9--x--9---x----6--x--6---x----7--x--7---x----7--------|
A|----7--x--7---x----6--x--6---x----7--x--7---x----7--------|
E|----x--x--x---x----4--x--4---x----5--x--5---x----5--------|


Ponte:
Baby take all ..... I'll be here...
   F#7

Comentários 7

  • Caio Caio: Postado em 11/04/2014 13:19

    tem como montar uma vídeo aula com a versão completa dessa musica?

  • joaoantonio.silva.777 joaoantonio.silva.777: Postado em 06/09/2013 14:51

    vídeo aula!!!

  • Leandro Leandro: Postado em 10/08/2013 19:19

    Video aula!!

  • wilnogue wilnogue: Postado em 13/11/2012 16:25

    Video aula !!!

  • teteeeeeeu teteeeeeeu: Postado em 02/11/2012 14:57

    Vídeo aula dessa música seria muito dahora.

  • amandaiza amandaiza: Postado em 30/06/2012 20:04

    Video aula por favor ‼

  • pedro0 pedro0: Postado em 20/01/2012 20:09

    Video aula por favor cifra club

Composição: Alfredo Gil / E. Santos
Esse não é o compositor? Avise-nos.
Contribuição: Maris Ribeiro Correções: la_tm2 e mais 1 »
Exibir acordes »
publicidade
fechar