Bendito Serás

Maxwell Ferreira

Sem foto do Maxwell Ferreira Compositor: Davi Sacer / Luiz Arcanjo / André Rodrigues
Tom: A#
		
(intro 2x) G D/F# Em D/F# G

G             G   D/F#  Em  D/F#  G
Não, este não po - de   ser teu  fim
             G   D/F#  Em   G/B  C
Não é o que Deus so - nhou pra ti
            D9    D
Não podes aceitar
G         G    D/F# Em   D/F#  G
Ver tua famí - lia  se aca - bar
        G D/F# Em   G/B  C9
Tua esperança  se apagar
            D9    D
Tua fé se esmorecer

Gm           Gm/F#            Gm/F            Gm/E           Eb
  Sei que é difícil crer que sim, se tudo em volta diz  que não
             Cm           F  D
E a angústia te faz esquecer
Gm        Gm/F#            Gm/F            Gm/E        Eb
  De tudo que Deus prometeu que sobre tua vida estão
          Cm             F  F4
As mesmas bençãos de Abraão

Bb9   Dm7    Eb       F
  Bendita será tua casa
Bb9   Dm7      Eb       F
  Benditos serão teus filhos
   Gm         Dm Eb      F  (intro)
E Deus engrandecerá teu nome

(solo) Eb   F   Gm   F/A   Dm7 Em7   F G   E


E|------------------------------------------------------------------------------|
B|-----------------------------10-11-11/13-13---10---10-12-12/13-12----13-15----|
G|-5b-5b-5b---5~-8-10-10/12-12----------------9----9----------------12-------12-|
D|----------8-------------------------------------------------------------------|
A|------------------------------------------------------------------------------|
E|------------------------------------------------------------------------------|



E|-------------------------------12-12-12/19--|
B|-15-17-17/18-18-17----17/20-20--------------|
G|-------------------17-----------------------|
D|--------------------------------------------|
A|--------------------------------------------|
E|--------------------------------------------|


B   D#m7    E      F#
 Bendita será tua casa
B   D#m7     E       F#
 Benditos serão teus filhos
   G#m        F#  E      F#   B E      F#   B E      F#
E Deus engrandecerá teu nome,     teu nome,     teu nome.
2.046 exibições

Comentários 0

Composição: Davi Sacer / Luiz arcanjo / André Rodrigues
Esse não é o compositor? Avise-nos.
Contribuição: MAXWELL
Consegui tocarAinda não conseguiram tocar essa música. Seja o primeiro!
    Não consegui tocar
    Exibir acordes »
    publicidade
    fechar