I Need a Woman

McFly

 McFly
Tom: E
		
Intro:


E|-----------------------------
B|-----------------------------
G|-----------------------------
D|-----------------------------
A|-------2------------2--------
E|0*-2s4---2-4-0*-2s4---2-4-0*-


( E )
I've been searching for some
Love and affection but there's
Nobody giving me that kind of attention
     A
I'm alone
          E
Oh, I'm alone
( E )
Can't help thinking that there's
Somebody missing who should
Hold me and please me 'til I'm
Tired of her kissing
     A
I'm alone
          E
Oh, I'm alone

A B
But when it gets to midnight
A B
I'm in my bed alone
A B
You're all I want
A B
You're all I need
A B
It's cold in the night
But I'm looking for the heat

     E            G#m
Baby I, I need a woman
         A
Not any woman
      E                 B
But a woman who needs me too
              E
So how about you?


E|-----------------------------
B|-----------------------------
G|-----------------------------
D|-----------------------------
A|-------2------------2--------
E|0*-2s4---2-4-0*-2s4---2-4-0*-



( E )
Songs on the radio are
Just carbon copies of the
Way that I'm feeling after
Five cups of coffee
     A
I'm alone
          E
Oh, I'm alone

A B
But when it gets to sunrise
A B
I'm waking up alone
A B
You're all I want
A B
You're all I need
A B
This bed is burning up 99 degrees

      E            G#m
Honey I, I need a woman
         A
Not any woman
      E                 B
But a woman who needs me too
E            G#m
I, I need a woman
         A
Not any woman
      E                 B
But a woman who needs me too
      E
So how about you?
Riff 3x:


E|-----------------------------
B|-----------------------------
G|-----------------------------
D|-----------------------------
A|-------2------------2--------
E|0*-2s4---2-4-0*-2s4---2-4-0*-


           E            G#m
Believe me I, I need a woman
         A
Not any woman
      E                 B
But a woman who needs me too
E            B
I, I need a woman
         A
Not any woman
      E                 B
But a woman who needs me too
              E
So how about you?
Riff 3x:


E|-----------------------------
B|-----------------------------
G|-----------------------------
D|-----------------------------
A|-------2------------2--------
E|0*-2s4---2-4-0*-2s4---2-4-0*-
10.394 exibições

Comentários 3

  • Sra. Sra.: Postado em 21/08/2014 18:33

    O riff certo, gente:

    A|------------------2------------------------
    E|0--------2--4---------2-4-----0--------

  • Amanda Amanda : Postado em 23/09/2013 12:56

    o riff certo é

    A|--------3-------------
    E|-1--5----3--5--1---

  • isamcfly isamcfly: Postado em 29/06/2012 11:02

    O riff tá erradíssimo :/

Composição: Tom Fletcher/ Danny Jones/Dougie Poynter
Esse não é o compositor? Avise-nos.
Contribuição: Lessie Correções: Daiane e mais 2 »
Exibir acordes »
publicidade
fechar