Nothing Else Matters

Metallica

 Metallica Compositor: James Hetfield / Lars Ulrich
Tom: G
		

E|-------0-----|-------0-----|-------0-----|-------0---7-|
B|-----0---0---|-----0---0---|-----0---0---|-----0---0---|
G|---0-------0-|---0-------0-|---0-------0-|---0---------|
D|-------------|-------------|-------------|-------------|
A|-------------|-------------|-------------|-------------|
E|-0-----------|-0-----------|-0-----------|-0-----------|



E|-7-----------7p0---------||---------7---8---7h8\5---7-5p3\2---|
B|-----0-----------0-------||---------0---0-----------0-------5-|
G|---------0-----------0---||-----0-----------------------------|
D|-------------------------||-----------------------------------|
A|-------------------------||-----------------------------------|
E|-0-----------------------||-0---------------------------------|

  Am

E|-------------2p0---------|-------------0---0---0---|
B|-5-------5-------5-------|---------5-------5---5---|
G|-----5---------------5---|-----5-----------5---5---|
D|-------------------------|-------------------------|
A|-0-----------------------|-0---------------0---2---|
E|-------------------------|-------------------------|


  C                         D
E|-0-----------3p0-----0---|-0-----------0h5p0---------|
B|-5-------5-------5---5---|-7-------7---------7^0-0^5-|
G|-5-----5---5-------5-5---|-7-----7---7---------------|
D|-------------------------|---------------------------|
A|-3---3---------------3---|-5---5---------------------|
E|-------------------------|---------------------------|

                Em

E|-------------(12)----|-------0-----|-------0-----|-------0-----|
B|--------(12)-----0---|-----0---0---|---------0---|---------0---|
G|---(12)------------0-|---0-------0-|---0-------0-|---0-------0-|
D|---------------------|-------------|-------------|-------------|
A|---------------------|-------------|-------------|-------------|
E|-0-------------------|-0-----------|-0-----------|-0-----------|


  Em                        D     C       Em
E|-------------7-----------|-------------|-------------7-----------|
B|-------------8-----------|-----7-----5-|-------------8-----------|
G|-----------9-------------|-----7-----5-|-----------9-------------|
D|---------9---------------|---7-----5---|---------9---------------|
A|-------7-----------------|-5-----3-----|-------7-----------------|
E|-0-----------------------|-------------|-0-----------------------|


  D     C       Em                        D           C
E|-------------|-------------7-----------|-----5-----------3-------|
B|-----7-----5-|-------------8-----------|-------7-----------5-----|
G|-----7-----5-|---------9---------------|---------7-----------5---|
D|---7-----5---|-----------9-------------|-----7-----------5-------|
A|-5-----3-----|-------7-----------------|-5-----------3-----------|
E|-------------|-0-----------------------|-------------------------|


  G           B7            Em
E|-----3-----------2-------|-------0-----|-------0-----||
B|-------3-----------4-----|-----0---0---|-----0---0---||
G|---------4-----------2---|-4-0-------0-|---0-------0-||
D|-----5-----------4-------|-------------|-------------||
A|-------------2-----------|-------------|-------------||
E|-3-----------------------|-0-----------|-0-----------||


Guitarra Principal:

  Em                        D           C
E|-------------3-----0-----|-2-----3-----0-----------|
B|---------0-----------0---|---------3-------3-------|
G|-----0-----------0-----0-|-----------0-------0-----|
D|-------------------------|-0-----------------------|
A|-------------------------|-------------3-----------|
E|-0-----------------------|---------------------3-2-|


  Em                        D           C
E|-------------3-----0-----|-2-----------------------|
B|---------0-----------0---|-------3-----3-----------|
G|-----0-----------0-----0-|---------2p0-----0-------|
D|-------------------------|-0--0--------------------|
A|-------------------------|-------------3-----------|
E|-0-----------------------|---------------------3-2-|


  Em                        D           C
E|-------------3-----0-----|-2-----3-----3-----------|
B|---------0-----------0---|---------3-------3-------|
G|-----0-----------0-----0-|-----------0---------0---|
D|-------------------------|-0--0--------------------|
A|-------------------------|-------------3-----------|
E|-0-----------------------|-------------------------|


  G           B7            Em
E|---------3---2-------2---|-0-----0-----|-------------0-----------|
B|---------3---0---------0-|-----0---0---|---------0-------0-------|
G|-----0-------2-----------|---0-------0-|-----0-------------------|
D|-------------------------|-------------|-------------------------|
A|-------------2-----2-----|-------------|-------------------------|
E|-3-----------------------|-0-----------|-0-------------------3-2-|


Refrão:

  C     A       D      D  D  D  D4   D   D9  D
E|-------------|-2------2--2--2--3----2---0---2-|
B|-1-----2-----|-3------3--3--3--3----3---3---3-|
G|-0-----2-----|-2------2--2--2--2----2---2---2-|
D|-2-----2-----|-0------0--0--0--0----0---0---0-|
A|-3-----0-----|--------------------------------|
E|-------------|--------------------------------|


  C     A       D      D  D  D  D4   D   D9  D
E|-------------|-2------2--2--2--3----2---0---2-|
B|-1-----2-----|-3------3--3--3--3----3---3---3-|
G|-0-----2-----|-2------2--2--2--2----2---2---2-|
D|-2-----2-----|-0------0--0--0--0----0---0---0-|
A|-3-----0-----|--------------------------------|
E|-------------|--------------------------------|


  C     A       D      D  D  D  Em
E|-------------|-2------2--2--2--0--------------|
B|-1-----2-----|-3------3--3--3--0--------------|
G|-0-----2-----|-2------2--2--2--0--------------|
D|-2-----2-----|-0------0--0--0--2--------------|
A|-3-----0-----|-----------------2--------------|
E|-------------|-----------------0--------------|


Segundo Refrão:

  C     A       D      D  D  D  D4   D   D9  D
E|-------------|-2------2--2--2--3----2---0---2-|
B|-1-----2-----|-3------3--3--3--3----3---3---3-|
G|-0-----2-----|-2------2--2--2--2----2---2---2-|
D|-2-----2-----|-0------0--0--0--0----0---0---0-|
A|-3-----0-----|--------------------------------|
E|-------------|--------------------------------|


  C     A       D      D  D  D  D4   D   D9  D
E|-------------|-2------2--2--2--3----2---0---2-|
B|-1-----2-----|-3------3--3--3--3----3---3---3-|
G|-0-----2-----|-2------2--2--2--2----2---2---2-|
D|-2-----2-----|-0------0--0--0--0----0---0---0-|
A|-3-----0-----|--------------------------------|
E|-------------|--------------------------------|


  C     A       D      D  D  D  Em
E|-------------|-2------2--2--2--0--------------|
B|-1-----2-----|-3------3--3--3--0--------------|
G|-0-----2-----|-2------2--2--2--0--------------|
D|-2-----2-----|-0------0--0--0--2--------------|
A|-3-----0-----|-----------------2--------------|
E|-------------|-----------------0--------------|


Intervalo:

E|-12-------14---|-15-------17---|-8------8------|-------8-------|
B|---12-------12-|---12-------12-|---5------5----|----5-----5----|
G|---------------|---------------|-----5------5--|-5----------5\-|
D|---------------|---------------|---------------|---------------|
A|---------------|---------------|---------------|---------------|
E|---------------|---------------|---------------|---------------|



E|-15-------17---|-19-------20---|-12------------|---------------|
B|---17-------17-|---17-------17-|---13----------|---------------|
G|---------------|---------------|---------------|---------------|
D|---------------|---------------|---------------|---------------|
A|---------------|---------------|---------------|---------------|
E|---------------|---------------|---------------|---------------|



E|-0---------0---|-0--------0----|-0--7--7-0-----|--------0-------|
B|----1--------1-|----3-------3--|-12--0---12-0--|------0---------|
G|-------0-------|-------2-------|------0-------0|----0-----------|
D|---------------|---------------|---------------|----------------|
A|---------------|---------------|---------------|----------------|
E|---------------|---------------|---------------|-0--------------|



E|-12------------|12/14----------|----12-12------|----------------|
B|----13---------|----15---------|---------------|----------------|
G|-------12------|-------14------|---------------|----------------|
D|---------------|---------------|---------------|----------------|
A|---------------|---------------|---------------|----------------|
E|---------------|---------------|---------------|----------------|



E|-12-------14---|-15-------17---|-8------8------|-------8--------|
B|---12-------12-|---12-------12-|---5------5----|----5-----5-----|
G|---------------|---------------|-----5------5--|-5----------5\--|
D|---------------|---------------|---------------|----------------|
A|---------------|---------------|---------------|----------------|
E|---------------|---------------|---------------|----------------|



E|-15-------17---|-19-------20---|-12------------|----------------|
B|---17-------17-|---17-------17-|---13----------|----------------|
G|---------------|---------------|---------------|----------------|
D|---------------|---------------|---------------|----------------|
A|---------------|---------------|---------------|----------------|
E|---------------|---------------|---------------|----------------|



E|-0-------0-----|-0------0------|-0-7----7-0----|-----7-------0---------------|
B|---1-------1---|---3------3----|----0-------0--|---------0-------0-----------|
G|-----0---------|-----2---------|-------0------0|-----0-----------------------|
D|---------------|---------------|---------------|-----------------------------|
A|---------------|---------------|---------------|-----------------------------|
E|---------------|---------------|---------------|-0--------------------3--2---|



E|-12------------|---------------|---12----------|-----------------------------|
B|----13---------|-8-8h10-8-11\10|---------------|---------12--12\10-----------|
G|-------12------|---------------|---------------|--------------9\ 7--9-11-12-9|
D|---------------|---------------|---------------|-----------------------------|
A|---------------|---------------|---------------|-----------------------------|
E|---------------|---------------|---------------|-----------------------------|


Guitarra Solo:

  E5               E5          D5                 C5
E|----------------------------|------------------------------------|
B|-15------15-----------------|------------------------------------|
G|-14(16)--14(16)14-12--12-11-|-11h12p11-----11-----------12-14-12-|
D|----------------------------|-----------14----12-14--------------|
A|----------------------------|------------------------------------|
E|----------------------------|------------------------------------|


  E5                E5                  D5                    C5
E|-------12-------12-------------------|---------------------------|
B|----12-------12----15-12----12-------|------------14---14-13-----|
G|-14(16)---14(16)---------15----15-14-|-12(14)12---14---14-13-12\-|
D|-------------------------------------|---------------------------|
A|-------------------------------------|---------------------------|
E|-------------------------------------|---------------------------|


   E5       E5         D5                           C5
E|-/15-14----15-14-17-|-15----14h15p14\12----15-14-----------------|
B|--------12----------|-------------------12---------12------------|
G|--------------------|-----------------------------------12-14-12-|
D|--------------------|--------------------------------------------|
A|--------------------|--------------------------------------------|
E|--------------------|--------------------------------------------|


  G5                      B5                 E5
E|------------------------------------------|----------------------|
B|-15------------------------15-15(17)15p12-|-17-------------------|
G|-14(16)14--12-14(16)14-14-----------------|----------------------|
D|------------------------------------------|----------------------|
A|------------------------------------------|----------------------|
E|------------------------------------------|----------------------|



E|------------|--------------------|---------------|---------------|
B|-(17)-------|15\12h15p12\\\\\\\-7p5h7p5----------|-(5)-----------|
G|------------|--------------------|---------------|---------------|
A|------------|--------------------|---------------|---------------|
D|------------|--------------------|---------------|---------------|
E|------------|--------------------|---------------|---------------|



E|-------0-----|-------0-----|-------0-----|-------0-----|
B|-----0---0---|-----0---0---|-----0---0---|-----0---0---|
G|---0-------0-|---0-------0-|---0-------0-|---0---------|
D|-------------|-------------|-------------|-------------|
A|-------------|-------------|-------------|-------------|
E|-0-----------|-0-----------|-0-----------|-0-----------|


Segunda parte da guitarra principal:

  Em                        D           C
E|-------------3-----0-----|-2-----3-----0-----------|
B|---------0-----------0---|---------3-------3-------|
G|-----0-----------0-----0-|-----------0-------0-----|
D|-------------------------|-0-----------------------|
A|-------------------------|-------------3-----------|
E|-0-----------------------|---------------------3-2-|


  Em                        D           C
E|-------------3-----0-----|-2-----------------------|
B|---------0-----------0---|-------3-----3-----------|
G|-----0-----------0-----0-|---------2p0-----0-------|
D|-------------------------|-0--0--------------------|
A|-------------------------|-------------3-----------|
E|-0-----------------------|---------------------3-2-|


  Em                        D           C
E|-------------3-----0-----|-2-----3-----3-----------|
B|---------0-----------0---|---------3-------3-------|
G|-----0-----------0-----0-|-----------0---------0---|
D|-------------------------|-0--0--------------------|
A|-------------------------|-------------3-----------|
E|-0-----------------------|-------------------------|


  G           B7            Em
E|---------3---2-----2-----|-0-----0-----|-------------0-----------|
B|---------3---0-----0-----|-----0---0---|---------0-------0-------|
G|-----0-------2-----2-----|---0-------0-|-----0-------------------|
D|-------------------------|-------------|-------------------------|
A|-------------2-----2-----|-------------|-------------------------|
E|-3-----------------------|-0-----------|-0-------------------3-2-|


Final:
  Em

E|-0-----0-----|-------0---7-|-7-----------7^0---------|
B|-----0---0---|-----0---0---|-----0-----------0-------|
G|---0-------0-|---0---------|---------0-----------0---|
D|-------------|-------------|-------------------------|
A|-------------|-------------|-------------------------|
E|-0-----------|-0-----------|-0-----------------------|



E|---------7---8---7h8\5--7---5\2--0---|
B|---------0---0----------0-----------.|
G|-----0-------------------------------|
D|-------------------------------------|
A|------------------------------------.|
E|-0-----------------------------------|


Introdução:
(James) 1
 Em

E|-------0-----|-------0-----|-------0-----|-------0---7-|
B|-----0---0---|-----0---0---|-----0---0---|-----0---0---|
G|---0-------0-|---0-------0-|---0-------0-|---0---------|
D|-------------|-------------|-------------|-------------|
A|-------------|-------------|-------------|-------------|
E|-0-----------|-0-----------|-0-----------|-0-----------|

P                                 H S

E|-7-----------7^0---------|   E|---------7h8/7---7/5-----|
B|-----0-----------0-------|   B|---------------0-----5---|
G|---------0-----------0---|  G|-----0-------------------|
D|-------------------------|  D|-------------------------|
A|-------------------------|   A|-------------------------|
E|-0-----------------------|   E|-0-----------------------|

Am
P

E|-------------2^0---------|-------------0---0---0---|
B|-5-------5-------5-------|---------5-------5---5---|
G|-----5---------------5---|-----5-----------5---5---|
D|-------------------------|-------------------------|
A|-0-----------------------|-0---------------0---2---|
E|-------------------------|-------------------------|

C                         D
P                         H P   P   H

E|-0-----------3^0-------0---|-0------------------------------|
B|-5-------5-------5-----5---|-7-------7---5^7^3/5------------|
G|-5-----5---5-------5---5---|-7-----7---7--------------------|
D|---------------------------|--------------------------------|
A|-3---3---------------3-3---|-5---5--------------------------|
E|---------------------------|--------------------------------|

Em
Har.

E|-------12----|-------0-----|-------0-----|-------0-----|
B|-----12--0---|-----0---0---|---------0---|---------0---|
G|---12------0-|---0-------0-|---0-------0-|---0-------0-|
D|-------------|-------------|-------------|-------------|
A|-------------|-------------|-------------|-------------|
E|-0-----------|-0-----------|-0-----------|-0-----------|


 Em                        D     C       Em
E|-------------7-----------|-------------|-------------7-----------|
B|-------------8-----------|-----7-----5-|-------------8-----------|
G|-----------9-------------|-----7-----5-|-----------9-------------|
D|---------9---------------|---7-----5---|---------9---------------|
A|-------7-----------------|-5-----3-----|-------7-----------------|
E|-0-----------------------|-------------|-0-----------------------|


 D     C       Em                        D           C
E|-------------|-------------7-----------|-----5-----------3-------|
B|-----7-----5-|-------------8-----------|-------7-----------5-----|
G|-----7-----5-|---------9---------------|---------7-----------5---|
D|---7-----5---|-----------9-------------|-----7-----------5-------|
A|-5-----3-----|-------7-----------------|-5-----------3-----------|
E|-------------|-0-----------------------|-------------------------|

G           B            Em
Fim da introdução

E|-----3-----------2-------|-------0-----|-------0---------||
B|-------3-----------4-----|-----0---0---|-----0---0-------||
G|---------4-----------4---|-4-0-------0-|---0-------0-----||
D|-----5-----------4-------|-------------|-----------------||
A|-------------2-----------|-------------|-----------------||
E|-3-----------------------|-0-----------|-0-----------3-2-||

Parte da guitarra principal
JAMES 2:

 Em                        D           C
E|-------------3-----0-----|-2-----3-----0-----------|
B|---------0-----------0---|---------3-------3-------|
G|-----0-----------0-----0-|-----------0-------0-----|
D|-------------------------|-0-----------------------|
A|-------------------------|-------------3-----------|
E|-0-----------------------|---------------------3-2-|

Em                        D           C
P

E|-------------3-----0-----|-2-----------------------|
B|---------0-----------0---|-------3-----3-----------|
G|-----0-----------0-----0-|---------2^0-----0-------|
D|-------------------------|-0--0--------------------|
A|-------------------------|-------------3-----------|
E|-0-----------------------|---------------------3-2-|


 Em                        D           C
E|-------------3-----0-----|-2-----3-----3-----------|
B|---------0-----------0---|---------3-------3-------|
G|-----0-----------0-----0-|-----------0---------0---|
D|-------------------------|-0--0--------------------|
A|-------------------------|-------------3-----------|
E|-0-----------------------|-------------------------|


 G           B7            Em
E|---------3---2-------2---|-0-----0-----|-------------0-----------|
B|---------3---0---------0-|-----0---0---|---------0-------0-------|
G|-----0-------2-----------|---0-------0-|-----0-------------------|
D|-------------------------|-------------|-------------------------|
A|-------------2-----2-----|-------------|-------------------------|
E|-3-----------------------|-0-----------|-0-------------------3-2-|

Parte dos acordes de guitarra:
Priemiro Refrão
JAMES 3

 C     A       D      D  D  D  D4   D   D9  D
E|-------------|-2------2--2--2--3----2---0---2-|
B|-1-----2-----|-3------3--3--3--3----3---3---3-|
G|-0-----2-----|-2------2--2--2--2----2---2---2-|
D|-2-----2-----|-0------0--0--0--0----0---0---0-|
A|-3-----0-----|--------------------------------|
E|-------------|--------------------------------|


 C     A       D      D  D  D  D4   D   D9  D
E|-------------|-2------2--2--2--3----2---0---2-|
B|-1-----2-----|-3------3--3--3--3----3---3---3-|
G|-0-----2-----|-2------2--2--2--2----2---2---2-|
D|-2-----2-----|-0------0--0--0--0----0---0---0-|
A|-3-----0-----|--------------------------------|
E|-------------|--------------------------------|


 C     A       D      D  D  D  Em
E|-------------|-2------2--2--2--0--------------|
B|-1-----2-----|-3------3--3--3--0--------------|
G|-0-----2-----|-2------2--2--2--0--------------|
D|-2-----2-----|-0------0--0--0--2--------------|
A|-3-----0-----|-----------------2--------------|
E|-------------|-----------------0--------------|

Segundo refrão
JAMES 4

 C     A       D      D  D  D  D4   D   D9  D
E|-------------|-2------2--2--2--3----2---0---2-|
B|-1-----2-----|-3------3--3--3--3----3---3---3-|
G|-0-----2-----|-2------2--2--2--2----2---2---2-|
D|-2-----2-----|-0------0--0--0--0----0---0---0-|
A|-3-----0-----|--------------------------------|
E|-------------|--------------------------------|


 C     A       D      D  D  D  D4   D   D9  D
E|-------------|-2------2--2--2--3----2---0---2-|
B|-1-----2-----|-3------3--3--3--3----3---3---3-|
G|-0-----2-----|-2------2--2--2--2----2---2---2-|
D|-2-----2-----|-0------0--0--0--0----0---0---0-|
A|-3-----0-----|--------------------------------|
E|-------------|--------------------------------|


 C     A       D      D  D  D  Em
E|-------------|-2------2--2--2--0--------------|
B|-1-----2-----|-3------3--3--3--0--------------|
G|-0-----2-----|-2------2--2--2--0--------------|
D|-2-----2-----|-0------0--0--0--2--------------|
A|-3-----0-----|-----------------2--------------|
E|-------------|-----------------0--------------|

Primeiro solo ( Dueto )
JAMES                                                        S
|-12-------14---|-15-------17---|-8------8------|-------8-------|
|---12-------12-|---12-------12-|---5------5----|----5-----5----|
|---------------|---------------|-----5------5--|-5----------5-|
|---------------|---------------|---------------|---------------|
|---------------|---------------|---------------|---------------|
|---------------|---------------|---------------|---------------|
|
|Kirk
|-15-------17---|-19-------20---|-12------------|---------------|
|---17-------17-|---17-------17-|---13----------|---------------|
|---------------|---------------|---------------|---------------|
|---------------|---------------|---------------|---------------|
|---------------|---------------|---------------|---------------|
|---------------|---------------|---------------|---------------|
JAMES
|-0---------0---|-0--------0----|-0--7--7-0-----|--------0-------|
|----1--------1-|----3-------3--|-12--0---12-0--|------0---------|
|-------0-------|-------2-------|------0-------0|----0-----------|
|---------------|---------------|---------------|----------------|
|---------------|---------------|---------------|----------------|
|---------------|---------------|---------------|-0--------------|
|
|Kirk              S
|-12------------|12/14----------|----12-10------|----------------|
|----13---------|----15---------|---------------|----------------|
|-------12------|-------14------|---------------|----------------|
|---------------|---------------|---------------|----------------|
|---------------|---------------|---------------|----------------|
|---------------|---------------|---------------|----------------|
JAMES                                                        S
|-12-------14---|-15-------17---|-8------8------|-------8--------|
|---12-------12-|---12-------12-|---5------5----|----5-----5-----|
|---------------|---------------|-----5------5--|-5----------5--|
|---------------|---------------|---------------|----------------|
|---------------|---------------|---------------|----------------|
|---------------|---------------|---------------|----------------|
|
|Kirk
|-15-------17---|-19-------20---|-12------------|----------------|
|---17-------17-|---17-------17-|---13----------|----------------|
|---------------|---------------|---------------|----------------|
|---------------|---------------|---------------|----------------|
|---------------|---------------|---------------|----------------|
|---------------|---------------|---------------|----------------|
JAMES
|-0-------0-----|-0------0------|-0-7----7-0----|-----7-------0---------------|
|---1-------1---|---3------3----|----0-------0--|---------0-------0-----------|
|-----0---------|-----2---------|-------0------0|-----0-----------------------|
|---------------|---------------|---------------|-----------------------------|
|---------------|---------------|---------------|-----------------------------|
|---------------|---------------|---------------|-0--------------------3--2---|
|
|Kirk                H       S                                  S            V
|-12------------|---------------|---12----------|-----------------------------|
|----13---------|-8-8^10-8-1110|---------------|---------12--1210-----------|
|-------12------|---------------|---------------|--------------9 7--9-11-12-9|
|---------------|---------------|---------------|-----------------------------|
|---------------|---------------|---------------|-----------------------------|
|---------------|---------------|---------------|-----------------------------|
PARTE DA GUITARRA SOLO
(Solo James)
E5               E5          D5                 C5

 B          B  R   V             H  P             V
E|----------------------------|------------------------------------|
B|-15------15-----------------|------------------------------------|
G|-14(16)--14(16)14-12--12-11-|-11^12^11-----11-----------12-14-12-|
D|----------------------------|-----------14----12-14--------------|
A|----------------------------|------------------------------------|
E|----------------------------|------------------------------------|

E5                E5                  D5                    C5

 B        B                            B  R                V S
E|-------12-------12-------------------|---------------------------|
B|----12-------12----15-12----12-------|------------14---14-13-----|
G|-14(16)---14(16)---------15----15-14-|-12(14)12---14---14-13-12-|
D|-------------------------------------|---------------------------|
A|-------------------------------------|---------------------------|
E|-------------------------------------|---------------------------|

E5       E5         D5                           C5
S                            H  P  S              V

E|-/15-14----15-14-17-|-15----14^15^1412----15-14-----------------|
B|--------12----------|-------------------12---------12------------|
G|--------------------|-----------------------------------12-14-12-|
D|--------------------|--------------------------------------------|
A|--------------------|--------------------------------------------|
E|--------------------|--------------------------------------------|

G5                      B5                 E5

 B  R         B  R            B  R  P
E|------------------------------------------|----------------------|
B|-15------------------------15-15(17)15^12-|-17-------------------|
G|-14(16)14--12-14(16)14-14-----------------|----------------------|
D|------------------------------------------|----------------------|
A|------------------------------------------|----------------------|
E|------------------------------------------|----------------------|

S  H  P        S  P H P

E|------------|--------------------|---------------|---------------|
B|-(17)-------|1512^15^12\\\-7^5^7^5----------|-(5)-----------|
G|------------|--------------------|---------------|---------------|
A|------------|--------------------|---------------|---------------|
D|------------|--------------------|---------------|---------------|
E|------------|--------------------|---------------|---------------|

JAMES 5

|-------0-----|-------0-----|-------0-----|-------0-----|
|-----0---0---|-----0---0---|-----0---0---|-----0---0---|
|---0-------0-|---0-------0-|---0-------0-|---0---------|
|-------------|-------------|-------------|-------------|
|-------------|-------------|-------------|-------------|
|-0-----------|-0-----------|-0-----------|-0-----------|

Segunda parte da guitarra principal
JAMES 6

 Em                        D           C
E|-------------3-----0-----|-2-----3-----0-----------|
B|---------0-----------0---|---------3-------3-------|
G|-----0-----------0-----0-|-----------0-------0-----|
D|-------------------------|-0-----------------------|
A|-------------------------|-------------3-----------|
E|-0-----------------------|---------------------3-2-|

Em                        D           C
P

E|-------------3-----0-----|-2-----------------------|
B|---------0-----------0---|-------3-----3-----------|
G|-----0-----------0-----0-|---------2^0-----0-------|
D|-------------------------|-0--0--------------------|
A|-------------------------|-------------3-----------|
E|-0-----------------------|---------------------3-2-|


 Em                        D           C
E|-------------3-----0-----|-2-----3-----3-----------|
B|---------0-----------0---|---------3-------3-------|
G|-----0-----------0-----0-|-----------0---------0---|
D|-------------------------|-0--0--------------------|
A|-------------------------|-------------3-----------|
E|-0-----------------------|-------------------------|


 G           B7            Em
E|---------3---2-----2-----|-0-----0-----|-------------0-----------|
B|---------3---0-----0-----|-----0---0---|---------0-------0-------|
G|-----0-------2-----2-----|---0-------0-|-----0-------------------|
D|-------------------------|-------------|-------------------------|
A|-------------2-----2-----|-------------|-------------------------|
E|-3-----------------------|-0-----------|-0-------------------3-2-|

Final
JAMES 7
Em
P

E|-0-----0-----|-------0---7-|-7-----------7^0---------|
B|----0---0---|-----0---0---|-----0-----------0-------|
G|---0-------0-|---0---------|---------0-----------0---|
D|-------------|-------------|-------------------------|
A|------------|-------------|-------------------------|
E|-0-----------|-0-----------|-0-----------------------|

H S        S

E|---------7---8---7---5/75--0-0----------|
B|---------0---0-----0---------------------|
G|-----0-----------------------------------|
D|-----------------------------------------|
A|-----------------------------------------|
E|-0----------------------------0----------|
---------------------------------------------------------------------------------------

Versão 2

(introdução)
JAMES 1
(Primeiro verso)
JAMES 2
Em                   Dsus2 C
So close no matter how far
Em                      Dsus2        C
Couldn't be much more from the heart
Em                 Dsus2    C
Forever trusting who we are
G     B7           Em
And nothing else matters
(Segundo verso)
JAMES 2
Em               Dsus2       C
Never opened myself this way
Em                     Dsus2     C
Life is ours, we live it our way
Em                        Dsus2  C
All these words I don't just say
G    B7           Em
And nothing else matters
(Terceiro verso)
JAMES 2
Em                   Dsus2     C
Trust I seek and I find in you
Em                 Dsus2       C
Every day for us something new
Em                Dsus2        C
Open mind for a different view
G     B7           Em
And nothing else matters
Obs: não toque o ultimo compasso.
(Refrão)
JAMES 3
C       Am       D        D4    D   D9   D
Never cared for what they do
C       Am       D        D4    D   D9   D
Never cared for what they know
C       Am       D         Em
But I know
(repetir o primeiro verso)
JAMES 2
Obs: não toque o último compasso.
(primeiro refrão)
JAMES 3
(intervalo)
JAMES e Kirk
(repetir o segundo e o terceiro verso)
JAMES 2
Obs: não toque o último compasso no terceiro verso.
(Segundo refrão)
JAMES 4
C       Am       D        D4    D   D9   D
Never cared for what they say
C       Am       D        D4    D   D9    D
Never cared for games they play
C       Am      D        D4    D   D9   D
Never cared for what they do
C       Am       D        D4    D   D9   D
Never cared for what they know
C       Am       D         Em
And I know
(Solo)
Kirk 1(ao chegar no oitavo compasso do solo, a outra guitarra deve iniciar
O JAMES 5)
(Quarto verso)
JAMES 6
Em                   Dsus2 C
So close no matter how far
Em                      Dsus2        C
Couldn't be much more from the heart
Em                 Dsus2    C
Forever trusting who we are
G    B7           Em
No nothing else matters
(final)
JAMES 7(repetir 4x diminuindo o volume da guitarra aos poucos)
Texto Colunas
Alterar tom ½ tom ½ tom
afinação acordes na letra esconder tabs mais »

Comentários (141)

  • gustavo gustavo: Postado em 01/04/2013 10:44

    finalmente aprendi a tocar vlw cifra club

  • khamikaze khamikaze: Postado em 04/08/2012 14:35

    e num ficam reclamando de tudo...bando de mal agradecidos....querem aprendere facil...vao jogar guitar hero.

  • khamikaze khamikaze: Postado em 04/08/2012 14:34

    Os caras ja ajudam demais com essas aulas e vcs ainda reclamam...por isso q os asiaticos sao bons em mtas coisas...pq eles correm atras...

  • khamikaze khamikaze: Postado em 04/08/2012 14:33

    Velhãoo...parem de reclamar q as aulas estão mal feitas ou que ta faltando num sei oq...eles tao passando o primeiro passo...

  • felipleo10 felipleo10: Postado em 14/07/2012 18:02

    uuuuuuuuuuuuuuuuuuuuuuuuuuuuuuuuuuuuuuuuuuuuuuuuuuu!!!!!!!!!!!!!!!!

  • joaocifraclub joaocifraclub: Postado em 09/07/2012 15:26

    tv cifras tem essa video aula

  • chitarra chitarra: Postado em 17/06/2012 11:00

    Pô Cifra...aula muito mal feita,poderiam refazê-la por favor!!!

  • gu1997 gu1997: Postado em 28/04/2012 19:34

    eu fiz 3 meses de aula de guitarra como eu só toco na palheta to apanhando um pokinho pra toca essa musica se alguem der dicas eu agradeço

    • spisokita spisokita: Postado em 19/09/2012 14:44

      faz um exercicio com o dedo indicador e medio com a mão direita quando eu comcei meu professor passo isso pra mim

  • renatooliveiraf renatooliveiraf: Postado em 28/04/2012 00:57

    facil d++

Exibindo 10 de 141 comentários Mostrar mais ver todos »
Composição: James Hetfield / Lars Ulrich / Lee Adams / Paulinho Da Viola
Esse não é o compositor? Avise-nos.
Contribuição: adrianoferreira Correções: jean »
  1. Tudo Que Você Quiser - Luan Santana Manteve-se 5.417 exibições
  2. Lepo Lepo - Psirico Manteve-se 3.901 exibições
  3. Mozão - Lucas Lucco Manteve-se 3.749 exibições
  4. Logo Eu - Jorge e Mateus Manteve-se 3.341 exibições
  5. Gaveta - Fernando e Sorocaba Manteve-se 2.999 exibições
  6. Só Os Loucos Sabem - Charlie Brown Jr. Manteve-se 2.698 exibições
  7. Pra Você - Onze:20 Manteve-se 2.391 exibições
  8. Tempo Perdido - Legião Urbana Manteve-se 2.189 exibições
  9. Fui Fiel - Gusttavo Lima Manteve-se 2.019 exibições
  10. Na Linha do Tempo - Victor e Leo Manteve-se 1.925 exibições
  1. Jorge e Mateus- Manteve-se 20.025 exibições
  2. Legião Urbana- Manteve-se 17.810 exibições
  3. Luan Santana- Manteve-se 15.901 exibições
  4. Charlie Brown Jr.- Manteve-se 15.521 exibições
  5. Fernandinho- Manteve-se 13.364 exibições
  6. Thalles Roberto- Manteve-se 10.046 exibições
  7. Aline Barros- Manteve-se 9.582 exibições
  8. Católicas- Manteve-se 9.431 exibições
  9. Victor e Leo- Manteve-se 9.367 exibições
  10. Gusttavo Lima- Manteve-se 8.996 exibições
Exibir acordes »

Cifras e tabs

Fórum Cifra Club

Aprenda

Cifra Club News

Mais Serviços Cifra Club ID

Studio Sol

©1996 - 2014 Cifra Club · o primeiro, maior e mais acessado do Brasil · 329 mil músicas · 5.9 milhões pessoas cadastradas

publicidade
fechar