The Day That Never Comes

Metallica

 Metallica
Tom: C
		
Intro:

Guitarra 1(James)(2x):


E|-------12----------12----------12----------12----|
B|----13----13----13----13----12----12----12----12-|
G|-14----------14----------12----------12----------|
D|-------------------------------------------------|
A|-------------------------------------------------|
E|-------------------------------------------------|



E|-------14----------14----------12----------12----|
B|----15----15----15----15----13----13----13----13-|
G|-12----------12----------14----------14----------|
D|-------------------------------------------------|
A|-------------------------------------------------|
E|-------------------------------------------------|


Intro Guitarra 2 (Kirk):


E|------------------------------------------------|
B|------------------------------------------------|
G|7/9-------------7/9-----------------------------|
D|-----7--7/9--5-------7--7/9--7------------------|
A|5/7-------------5/7-----------------------------|
E|-----5--5/7--3-------5--5/7--5------------------|



E|------------------------------------------------|
B|------------------------------------------------|
G|7/9-------------7/9-----------------------------|
D|-----7--7/9--5-------7--7/9--7------------------|
A|5/7-------------5/7-----------------------------|
E|-----5--5/7--3-------5--5/7--5------------------|



E|----------------------------------------------------------|
B|----------------------------------------------------------|
G|7/9-------------------------------------------------------|
D|-----7--7/9--5---5/7-7/9-9/10-9---------------------------|
A|5/7------------------------------10h12-12h14-14h15-15p12~-|
E|-----5--5/7--3---3/5-5/7-7/8------------------------------|



E|------------------------------------------------|
B|------------------------------------------------|
G|------------------------------------------------|
D|------------------9----9-10-9-10-12-10-9h10-9~--|
A|10--12-12---10-12---12--------------------------|
E|------------------------------------------------|



E|------------------------------------------------|
B|------------------------------------------------|
G|----------------------------------12-14~~-------|
D|9-10-12-14-12-10--12-14-15-14-15----------------|
A|------------------------------------------------|
E|------------------------------------------------|



Primeira Parte:

Born to push you around
Better just stay down.
You pull away
He hits the flesh
You hit the ground.

Mouth so full of lies
Tend to block your eyes.
Just keep them closed
Keep praying
Just keep waiting


       Am               G               Em         C
E|-------------------------------------------------------------------|
B|-------------------------------------------------------------------|
G|-----5---4-2----0--------0---0---------5---4-2---5-----5---4-----2-|(7x)
D|---2---2-----2---------0---0---------2---2-----2-----5---5---5-----|
A|-0-------------------2---2-------------------------3-----------3---|
E|-------------------3---------------0-------------------------------|



       Am               G               Em         C         P.M. . .(com distorção antes do refrão)
E|----------------------------------------------------------------------|
B|----------------------------------------------------------------------|
G|-----5---4-2----0--------0---0---------5---4-2---5-----5----0-0-0..---|
D|---2---2-----2---------0---0---------2---2-----2-----5------2-2-2..---|
A|-0-------------------2---2-------------------------3--------3-3-3..---|
E|-------------------3---------------0----------------------------------|


Refrão 1:

Waiting for the one
The day that never comes
When you stand up and feel the warmth
But the sunshine never comes.
No, the sunshine never comes.

Guitarra 1(James):

   A5            G5         E5      C5
P.M.      .           .

E|------------------------------0--------------------|
B|------------------------------0--------------------|
G|---------------------------------------------------|  (4x)
D|-2--------------------------------5-5~--5-5~-------|
A|-0----0-3-0----5----------2-------3-3~--3-3~-------|
E|------------3--3--3-5-3-2-0------------------------|



E|-----------------------------------|
B|-----------------------------------|
G|-----------------------------------|
D|-------------0-2-3-3-5-6-----------|
A|-------0-2-3-------------7~--------|
E|-0-1-3-----------------------------|


Guitarra 2(Kirk):

   A5            G5         E5      C5
P.M.      .           .

E|------------------------------0--------------------|
B|------------------------------0--------------------|
G|---------------------------------------------------|  (2x)
D|-2--------------------------------5-5~--5-5~-------|
A|-0----0-3-0----5----------2-------3-3~--3-3~-------|
E|------------3--3--3-5-3-2-0------------------------|



E|---------------------------------------------------|
B|---------------------------------------------------|
G|-5~------5-5h7-5-4-4~-----4--4h5-4-2-----5-5--5-5--|  (2x) Obs.: Apenas na 3ª e 4ª repetições.
D|-------------------------------------5-------------|
A|---------------------------------------------------|
E|---------------------------------------------------|



E|-----------------------------------|
B|-----------------------------------|
G|-----------------------------------|
D|-------------0-2-3-3-5-6-----------|
A|-------0-2-3-------------7~--------|
E|-0-1-3-----------------------------|


Passagem Após Refrão:

Guitarra 1(2x):


      Am               Em               G                Am
E|----0-------0--------0-------0--------2-------2--------0-------0-----|
B|--1---1---1---1----0---0---0---0----3---3---3---3----1---1---1---1---|
G|2-------2--------0-------0--------0-------0--------2-------2---------|
D|---------------------------------------------------------------------|
A|---------------------------------------------------------------------|
E|---------------------------------------------------------------------|


Guitarra 2:


E|------------------------------------------------|
B|------------------------------------------------|
G|7/9-------------7/9-----------------------------|
D|-----7--7/9--5-------7--7/9--7------------------|
A|5/7-------------5/7-----------------------------|
E|-----5--5/7--3-------5--5/7--5------------------|



E|------------------------------------------------|
B|------------------------------------------------|
G|7/9-------------7/9-----------------------------|
D|-----7--7/9--5-------7--7/9--7--/9\7~-----------|
A|5/7-------------5/7-----------------------------|
E|-----5--5/7--3-------5--5/7--5--/7\5~-----------|


Segunda Parte(apenas com variação na letra):

Push you cross that line,
Just stay down this time.
Hide in yourself
Crawl in yourself
You'll have your time.

God I'll make them pay
Take it back one day.
I'll end this day.
I'll splatter color on this gray.


       Am               G               Em         C
E|-------------------------------------------------------------------|
B|-------------------------------------------------------------------|
G|-----5---4-2----0--------0---0---------5---4-2---5-----5---4-----2-|(7x)
D|---2---2-----2---------0---0---------2---2-----2-----5---5---5-----|
A|-0-------------------2---2-------------------------3-----------3---|
E|-------------------3---------------0-------------------------------|



       Am               G               Em         C         P.M. . .(com distorção antes do refrão)
E|----------------------------------------------------------------------|
B|----------------------------------------------------------------------|
G|-----5---4-2----0--------0---0---------5---4-2---5-----5----0-0-0..---|
D|---2---2-----2---------0---0---------2---2-----2-----5------2-2-2..---|
A|-0-------------------2---2-------------------------3--------3-3-3..---|
E|-------------------3---------------0----------------------------------|


Refrão 2(com variação):

Waiting for the one
The day that never comes
When you stand up and feel the warmth
But the sunshine never comes.

Guitarra 1(James):

P.M.      .           .

E|------------------------------0--------------------|
B|------------------------------0--------------------|
G|---------------------------------------------------|  (4x)
D|-2--------------------------------5-5~--5-5~-------|
A|-0----0-3-0----5----------2-------3-3~--3-3~-------|
E|------------3--3--3-5-3-2-0------------------------|



E|-----------------------------------|
B|-----------------------------------|
G|-----------------------------------|
D|-------------0-2-3-3-5-6-----------|
A|-------0-2-3-------------7~--------|
E|-0-1-3-----------------------------|


Guitarra 2(Kirk):

P.M.      .           .

E|------------------------------0--------------------|
B|------------------------------0--------------------|
G|---------------------------------------------------|  (2x)
D|-2--------------------------------5-5~--5-5~-------|
A|-0----0-3-0----5----------2-------3-3~--3-3~-------|
E|------------3--3--3-5-3-2-0------------------------|



E|---------------------------------------------------|
B|---------------------------------------------------|
G|-5~------5-5h7-5-4-4~-----4--4h5-4-2-----5-5--5-5--|  (2x) Obs.: Apenas na 3ª e 4ª repetições.
D|-------------------------------------5-------------|
A|---------------------------------------------------|
E|---------------------------------------------------|



E|-----------------------------------|
B|-----------------------------------|
G|-----------------------------------|
D|-------------0-2-3-3-5-6-----------|
A|-------0-2-3-------------7~--------|
E|-0-1-3-----------------------------|


Guitarra 1 e 2 juntas:


E|-----------------------------------------------------|
B|-----------------------------------------------------|
G|-----------------------------------------------------|
D|-------------------------------2-------5-------4-----|
A|-------0-2-3--5---------0-2-3--0-------3-------2-----|
E|-0-1-3--------3---0-1-3----------0-1-3---0-1-3-------|



E|-----------------------------------|
B|-----------------------------------|
G|-----------------------------------|
D|-------------0-2-3-3-5-6-----------|
A|-------0-2-3-----------------------|
E|-0-1-3-----------------------------|



E|--------------------------------------------------|
B|--------------------------------------------------|
G|--------------------------------------------------| (2x)
D|--------------------------------------------------|
A|10-\-------2---------------9-\-------2------------|
E|8--\-------0---------------7-\-------0------------|


Terceira Parte(Parte 1):

Love is a four letter word,
And never spoken here.
Love is a four letter word,
Here in this prison.

P.M.  .               .               .

E|------------------------------------------------|
B|------------------------------------------------|
G|------------------------------------------------|
D|------------------------------------------------|
A|7-7---10~-7-10--7-7---10~-7-10--7-7---10~-7-10--|
E|0-0-0-0---0-0---0-0-0-0---0-0---0-0-0-0---0-0---|

      . . . . . . . . . .

E|------------------------------------------------|
B|------------------------------------------------|
G|------------------------------------------------|
D|------------------------------------------------|
A|9-8---------------------------------------------|
E|7-6-0-0-0-0-0-3-3-3-2-0-------------------------|

   .

E|------------------------------------------------|
B|------------------------------------------------|
G|------------------------------------------------|
D|------------------------------------------------|
A|----10~-7-10--7-7---10~-7-10--7-7---10~-7-10----|
E|-0--0---0-0---0-0-0-0---0-0---0-0-0-0---0-0-----|


      . . . . . . . . . .

E|------------------------------------------------|
B|------------------------------------------------|
G|------------------------------------------------|
D|------------------------------------------------|
A|9-8---------------------------------------------|
E|7-6-0-0-0-0-0-3-3-3-2-0-------------------------|

   .

E|------------------------------------------------|
B|------------------------------------------------|
G|------------------------------------------------|
D|------------------------------------------------|
A|----10~-7-10--7-7---10~-7-10--7-7---10~-7-10----|
E|-0--0---0-0---0-0-0-0---0-0---0-0-0-0---0-0-----|

      . . . . . .

E|------------------------------------------------|
B|------------------------------------------------|
G|------------------------------------------------|
D|------------------------------------------------|
A|9-8---------------------------------------------|
E|7-6-0-0-0-0-0-0---------------------------------|


Terceira Parte(Parte 2):

I suffer this no longer,
I'll put an end to this, I swear.
This, I swear. The sun will shine.
This, I swear,
This, I swear,
This, I swear!


E|------------------------------------------------|
B|------------------------------------------------|
G|------------------------------------------------|
D|------------------------------------------------|
A|4-4----------4-4----------4-4-------------------|
E|2-2-2-5-2-5--2-2-2-5-2-5--2-2-2-5-2-5-----------|



E|------------------------------------------------|
B|------------------------------------------------|
G|------------------------------------------------|
D|------------------------------------------------|
A|7-9-6-9-12-7-11-12-9---12-12-12\-12-12-12\------|
E|5-7-4-7-10-5-9--10-7---10-10-10\-10-10-10\------|



E|-----------------------------------|
B|-----------------------------------|
G|-----------------------------------|
D|-------------0-2-3-3-5-6-----------|
A|-------0-2-3-------------7~--------|
E|-0-2-4-----------------------------|



E|-----------------------------------|
B|-----------------------------------|
G|-----------------------------------|
D|-------------0-2-3-3-5-6-----------|
A|-------0-2-3-------------7~--------|
E|-0-2-4-----------------------------|


Partes Finais:

P.M. . . . . . . .        . . . . . . . .

E|----------------------------------------------|
B|----------------------------------------------|
G|----------------------------------------------|
D|----------------------------------------------|
A|-----------------2-2-2------------------2-2-2-|
E|-0-0-0-0-0-0-0-0-0-0-0--0-0-0-0-0-0-0-0-0-0-0-|


P.M. . . .     . . . .     . . . .     .

E|----------------------------------------------|
B|----------------------------------------------|
G|----------------------------------------------|
D|----------------------------------------------|
A|---------------------------------------6~-----|
E|-0-0-0-0-1p0-0-0-0-0-1p0-0-0-0-0-1p0-0--------|


P.M. . . . . . . .        . . . . . . . .

E|----------------------------------------------|
B|----------------------------------------------|
G|----------------------------------------------|
D|----------------------------------------------|
A|-----------------2-2-2------------------2-2-2-|
E|-0-0-0-0-0-0-0-0-0-0-0--0-0-0-0-0-0-0-0-0-0-0-|


P.M. . . .     . . . .     . . . .     .

E|----------------------------------------------|
B|----------------------------------------------|
G|----------------------------------------------|
D|----------------------------------------------|
A|---------------------------------------6~-----|
E|-0-0-0-0-1p0-0-0-0-0-1p0-0-0-0-0-1p0-0--------|


P.M. . . . . . . .        . . . . . . . .

E|----------------------------------------------|
B|----------------------------------------------|
G|----------------------------------------------|
D|----------------------------------------------|
A|-----------------2-2-2------------------2-2-2-|
E|-0-0-0-0-0-0-0-0-0-0-0--0-0-0-0-0-0-0-0-0-0-0-|


Partes Finais(solo com dueto):

Guitarra 1(James):


E|---------------------------------------------------|
B|---------------------------------------------------|
G|9--9-9-9p7---7-7-7-7p4---4-4-4-4p2---2p0-----------|
D|------------9-----------7-----------5-----2-5p2----|
A|------------------------------------------------5--|
E|---------------------------------------------------|



E|---------------------------------------------------|
B|---------------------------------------------------|
G|9--9-9-9p7---7-7-7-7p4---4-4-4-4p2---7b9-7-4h7-7---|
D|------------9-----------7-----------5--------------|
A|---------------------------------------------------|
E|---------------------------------------------------|



E|--------------------------------------------------------------|
B|12--12-12-12p10----10-10-10-10p8----8-8-8-8p7---7p5---5p3-----|
G|-----------------12---------------11-----------9-----7-----5--|
D|--------------------------------------------------------------|
A|--------------------------------------------------------------|
E|--------------------------------------------------------------|



E|-----------------------------------------------------------------|
B|12--12-12-12p10----10-10-10-10p8----8-8-8-8p7---5h7p5---3h5p3----|
G|-----------------12---------------11-----------9-------7-------5-|
D|-----------------------------------------------------------------|
A|-----------------------------------------------------------------|
E|-----------------------------------------------------------------|



E|-------------------------7-7-0-|
B|1h3p1---0h1p0---0--5-5-0-------|
G|------4-------2----------------|
D|-------------------------------|
A|-------------------------------|
E|-------------------------------|



E|--------------------------------------------------|
B|--------------------------------------------------|
G|--------------------------------------------------| (2x)
D|--------------------------------------------------|
A|10-\-------2---------------9-\-------2------------|
E|8--\-------0---------------7-\-------0------------|


Guitarra 2(Kirk):


E|-------------------------------------------------|
B|8-8-8-8p7-5-7-7-7-7p5-3-5-5-5-5p3-0-3p0----------|
G|-----------------------------------------2-4p2-0-|
D|-------------------------------------------------|
A|-------------------------------------------------|
E|-------------------------------------------------|



E|---------------------------------------------------|
B|8-8-8-8p7---7-7-7-7p5---5-5-5-5p3-0-7b9-7b9-5h7-7--|
G|-----------7-----------6---------------------------|
D|---------------------------------------------------|
A|---------------------------------------------------|
E|---------------------------------------------------|




E|7-7-7-7p5-3-5-5-5-5p3-2-3-3-3-3p2-0-0-2p0----------|
B|-------------------------------------------3-5p3-0-|
G|---------------------------------------------------|
D|---------------------------------------------------|
A|---------------------------------------------------|
E|---------------------------------------------------|



E|15-15-15-15p14-12-14-14-14-14p12-10-12-12-12-12p10-8---|
B|-------------------------------------------------------|
G|-------------------------------------------------------|
D|-------------------------------------------------------|
A|-------------------------------------------------------|
E|-------------------------------------------------------|



E|10p8-7-8p7-5-7p5-3-5p3-2-0-3-0-7-7-3-|
B|-------------------------------------|
G|-------------------------------------|
D|-------------------------------------|
A|-------------------------------------|
E|-------------------------------------|



E|--------------------------------------------------|
B|--------------------------------------------------|
G|--------------------------------------------------| (2x)
D|--------------------------------------------------|
A|10-\-------2---------------9-\-------2------------|
E|8--\-------0---------------7-\-------0------------|


Partes Finais(Hammers):

Guitarra 1(James):


E|---------------------------------------------------------------------------------------|
B|---------------------------------------------------------------------------------------|
G|---------------------------------------------------------------------------------------|  (4x)
D|---------------------------------------------------------------------------------------|
A|---------------------------------------------------------------------------------------|
E|-0h5h8-0h5h8-0h5h8-0h5h8-0h5h8-0h5h8-0h5h8-0h5h8-0h5h7-0h5h7-0h5h7-0h5h7-0h4h7-0h4h7-0-|


Guitarra 2(Kirk):


E|---------------------------------------------------------------------------------------|
B|---------------------------------------------------------------------------------------|
G|---------------------------------------------------------------------------------------| (2x)
D|---------------------------------------------------------------------------------------|
A|---------------------------------------------------------------------------------------|
E|-0h5h8-0h5h8-0h5h8-0h5h8-0h5h8-0h5h8-0h5h8-0h5h8-0h5h7-0h5h7-0h5h7-0h5h7-0h4h7-0h4h7-0-|



E|-0h5h8-0h5h8-0h5h8-0h5h8-0h5h8-0h5h8-0h5h8-0h5h8-0h5h7-0h5h7-0h5h7-0h5h7-0h4h7-0h4h7-0-|
B|---------------------------------------------------------------------------------------|
G|---------------------------------------------------------------------------------------| (2x)
D|---------------------------------------------------------------------------------------|
A|---------------------------------------------------------------------------------------|
E|---------------------------------------------------------------------------------------|


Guitarra 1 e 2 Juntas


E|-------------------------------------------0-3-0-7-7-3----------|
B|----------------------------------------------------------------|
G|----------------------------------------------------------------|
D|----------------------------------------------------------------|
A|10-\-------2---------------9-\-------2--------------------------|
E|8--\-------0---------------7-\-------0--------------------------|



E|-------------------------------------------0-3-0-7-7-3----------|
B|----------------------------------------------------------------|
G|----------------------------------------------------------------|
D|----------------------------------------------------------------|
A|10-\-------2---------------9-\-------2-------------------2~-----|
E|8--\-------0---------------7-\-------0-------------------0------|


Partes Finais(Riff):


E|---------------------------------------------------------------|
B|---------------------------------------------------------------|
G|-------------------------------------------7-------------------|
D|---------------------------------------7---5---9---7-----------|
A|9---7---5---2---9---7---5---2---7---9--5-------7---5---9---7---|
E|7---5---3---0---7---5---3---0---5---7------------------7---5---|



E|---------------------------------------------------------------|
B|---------------------------------------------------------------|
G|-------------------------------------------7-------------------|
D|---------------------------------------7---5-----------4-------|
A|9---7---5---2---9---7---5---2---7---9--5-------2---5---2---5---|
E|7---5---3---0---7---5---3---0---5---7----------0---3-------3---|



E|---------------------------------------------------------------|
B|---------------------------------------------------------------|
G|-------------------------------------------7-------------------|
D|---------------------------------------7---5---9---7-----------|
A|9---7---5---2---9---7---5---2---7---9--5-------7---5---9---7---|
E|7---5---3---0---7---5---3---0---5---7------------------7---5---|



E|---------------------------------------------------------------|
B|---------------------------------------------------------------|
G|-------------------------------------------7-------------------|
D|---------------------------------------7---5-----------4-------|
A|9---7---5---2---9---7---5---2---7---9--5-------2---5---2---5---|
E|7---5---3---0---7---5---3---0---5---7----------0---3-------3---|


Partes Finais(Solo)

Guitarra 2(Kirk):

 (aumentar gradativamente o tom do bend até chegar ao som da casa 6)

E|-------------------------------------------------------------|
B|-------------------------------------------------------------|
G|4-4-4-4-4b-4b-4b-4b-4b-4b-4b-4b-4b-4b-6r4-2--4b6-4b6--2------|
D|---------------------------------------------------------4~--|
A|-------------------------------------------------------------|
E|-------------------------------------------------------------|



E|-------------------------------------------------------------------|
B|-------------------------------------------------------7-8-10-12~--|
G|-----7---------7-----------7---7-9-9b11r9-7h9p7----7-9-------------|
D|-7-9---9~--7-9---9-9~--7-9---9------------------9------------------|
A|-------------------------------------------------------------------|
E|-------------------------------------------------------------------|



E|----14-17p15p14----------17p15p14----------17p15p14----------17p15p14-----------|
B|17-------------17p15p14----------17p15p14----------17p15p14----------17p15p14---|
G|--------------------------------------------------------------------------------|
D|--------------------------------------------------------------------------------|
A|--------------------------------------------------------------------------------|
E|--------------------------------------------------------------------------------|



E|------------------------------------------------------------------------------------|
B|17p15p14----------17p15p14-----------15-14-12-14-12---------------------------------|
G|---------16p14p13----------16p14p13-----------------14p13p12-14-16r14-12~----12~-12-|
D|--------------------------------------------------------------------------14--------|
A|------------------------------------------------------------------------------------|
E|------------------------------------------------------------------------------------|



E|----------------------------------------------------|
B|----------------------------------------------------|
G|----11-------10-------9-------8-------7------6------|
D|13-------12-------11------10------9------8----------|
A|----------------------------------------------------|
E|----------------------------------------------------|



E|-----------------------------------------------8-----8--10~----------------|
B|-------------------------8-----8--10~----10-10----10-----------10----11----|
G|---7------7--9~----9--9-----9----------------------------------12b14-13b15-|
D|9-----9--------------------------------------------------------------------|
A|---------------------------------------------------------------------------|
E|---------------------------------------------------------------------------|



E|14----------14----------14----------14----------|
B|---12-10-12----12-10-12----12-10-12----12-10-12-|
G|------------------------------------------------|
D|------------------------------------------------|
A|------------------------------------------------|
E|------------------------------------------------|



E|15----------15----------15----------15----------|
B|---13-12-13----13-12-13----13-12-13----13-12-13-|
G|------------------------------------------------|
D|------------------------------------------------|
A|------------------------------------------------|
E|------------------------------------------------|



E|17----------17----------17----------17----------|
B|---15-13-15----15-13-15----15-13-15----15-13-15-|
G|------------------------------------------------|
D|------------------------------------------------|
A|------------------------------------------------|
E|------------------------------------------------|



E|19----------17----------19----------17----------|
B|---17-15-17----17-15-17----17-15-17----17-15\---|
G|------------------------------------------------|
D|------------------------------------------------|
A|------------------------------------------------|
E|------------------------------------------------|



E|14----------14----------14----------14----------|
B|---12-10-12----12-10-12----12-10-12----12-10-12-|
G|------------------------------------------------|
D|------------------------------------------------|
A|------------------------------------------------|
E|------------------------------------------------|



E|15----------15----------15----------15----------|
B|---13-12-13----13-12-13----13-12-13----13-12-13-|
G|------------------------------------------------|
D|------------------------------------------------|
A|------------------------------------------------|
E|------------------------------------------------|



E|17----------17----------17----------17----------|
B|---15-13-15----15-13-15----15-13-15----15-13-15-|
G|------------------------------------------------|
D|------------------------------------------------|
A|------------------------------------------------|
E|------------------------------------------------|



E|19----------17----------19----------17----------|
B|---17-15-17----17-15-17----17-15-17----17-15-17-|
G|------------------------------------------------|
D|------------------------------------------------|
A|------------------------------------------------|
E|------------------------------------------------|



E|22-20-19-21-19-18-20-18-17-19-17-16-18-16-15-17-15-14-16-14-13-15-13-12-|
B|------------------------------------------------------------------------|
G|------------------------------------------------------------------------|
D|------------------------------------------------------------------------|
A|------------------------------------------------------------------------|
E|------------------------------------------------------------------------|



E|14-12-11-13-11-10-12-10-9-11-9-8-10-8-7----------|
B|-----------------------------------------7-------|
G|-------------------------------------------9--7\-|
D|-------------------------------------------------|
A|-------------------------------------------------|
E|-------------------------------------------------|



E|--------------------------------------------------15--17--19--20--22b24-|
B|--------10b12-----------12-15b17--------15--17--------------------------|
G|---7-----------------12------------/16----------------------------------|
D|9----9-----------/14----------------------------------------------------|
A|------------------------------------------------------------------------|
E|------------------------------------------------------------------------|


Guitarra 1 Base do Solo(James):

P.M.
  . . . . . . . . . . . . . . . . . . . . . . . . . . . . . . . .

E|----------------------------------------------------------------|
B|----------------------------------------------------------------|
G|----------------------------------------------------------------|
D|----------------------------------------------------------------|
A|2-2-2-2-2-2-2-2-2-2-2-2-2-2-2-2-2-2-2-2-2-2-2-2-2-2-2-2-2-2-2-2-|
E|----------------------------------------------------------------|


  . . . . . . . . . . . . . . . . . . . . . . . . . . . . . . . .

E|----------------------------------------------------------------|
B|----------------------------------------------------------------|
G|----------------------------------------------------------------|
D|----------------------------------------------------------------|
A|2-2-2-2-2-2-2-2-2-2-2-2-2-2-2-2-2-2-2-2-2-2-2-2-2-2-2-2-2-2-2-2-|
E|----------------------------------------------------------------|


  . . . . . . . . . . . . . . . . . . . . . . . . . . . . . . . .

E|----------------------------------------------------------------|
B|----------------------------------------------------------------|
G|----------------------------------------------------------------|
D|----------------------------------------------------------------|
A|----------------------------------------------------------------|
E|0-0-0-0-0-0-0-0-0-0-0-0-0-0-0-0-0-0-0-0-0-0-0-0-0-0-0-0-0-0-0-0-|


  . . . . . . . . . . . . . . . . . . . . . . . . . . . . . . . .

E|----------------------------------------------------------------|
B|----------------------------------------------------------------|
G|----------------------------------------------------------------|
D|----------------------------------------------------------------|
A|----------------------------------------------------------------|
E|0-0-0-0-0-0-0-0-0-0-0-0-0-0-0-0-0-0-0-0-0-0-0-0-0-0-0-0-0-0-0-0-|


  . . . . . . . . . . . . . . . . . . . . . . . .

E|----------------------------------------------------------------|
B|----------------------------------------------------------------|
G|----------------------------------------------------------------|
D|------------------------------------------------2---3-----------|
A|0-0-0-0-0-0-0-0-0-0-0-0-0-0-0-0-0-0-0-0-0-0-0-0-0---1-----------|
E|----------------------------------------------------------------|


  . . . . . . . . . . . . . . . . . . . . . . . . . . . . . . . .

E|----------------------------------------------------------------|
B|----------------------------------------------------------------|
G|----------------------------------------------------------------|
D|----------------------------------------------------------------|
A|2-2-2-2-2-2-2-2-2-2-2-2-2-2-2-2---------------------------------|
E|--------------------------------3-3-3-3-3-3-3-3-3-3-3-3-3-3-3-3-|


  . . . . . . . . . . . . . . . . . . . . . . . . . . . . . . . .

E|----------------------------------------------------------------|
B|----------------------------------------------------------------|
G|----------------------------------------------------------------|
D|----------------------------------------------------------------|
A|0-0-0-0-0-0-0-0-0-0-0-0-0-0-0-0---------------------------------|
E|--------------------------------2-2-2-2-2-2-2-2-2-2-2-2-2-2-2-2-|


  . . . . . . . . . . . . . . . . . . . . . . . . . . . . . . . .

E|----------------------------------------------------------------|
B|----------------------------------------------------------------|
G|----------------------------------------------------------------|
D|----------------------------------------------------------------|
A|2-2-2-2-2-2-2-2-2-2-2-2-2-2-2-2---------------------------------|
E|--------------------------------3-3-3-3-3-3-3-3-3-3-3-3-3-3-3-3-|


  . . . . . . . . . . . . . . . . . . . . . . . . . . . . . . . .

E|----------------------------------------------------------------|
B|----------------------------------------------------------------|
G|----------------------------------------------------------------|
D|----------------------------------------------------------------|
A|0-0-0-0-0-0-0-0-0-0-0-0-0-0-0-0---------------------------------|
E|--------------------------------2-2-2-2-2-2-2-2-2-2-2-2-2-2-2-2-|


  . . . . . . . . . . . . . . . . . . . . . . . . . . . . . . . .

E|----------------------------------------------------------------|
B|----------------------------------------------------------------|
G|----------------------------------------------------------------|
D|----------------------------------------------------------------|
A|----------------------------------------------------------------|
E|0-0-0-0-0-0-0-0-0-0-0-0-0-0-0-0-0-0-0-0-0-0-0-0-0-0-0-0-0-0-0-0-|


  . . . . . . . . . . . . . . . . . . . . . . . . . . . . . . . .

E|----------------------------------------------------------------|
B|----------------------------------------------------------------|
G|----------------------------------------------------------------|
D|----------------------------------------------------------------|
A|----------------------------------------------------------------|
E|0-0-0-0-0-0-0-0-0-0-0-0-0-0-0-0-0-0-0-0-0-0-0-0-0-0-0-0-0-0-0-0-|


Partes Finais(2º Hammers):

Guitarra 1(James):


E|---------------------------------------------------------------------------------------|
B|---------------------------------------------------------------------------------------|
G|---------------------------------------------------------------------------------------|  (4x)
D|---------------------------------------------------------------------------------------|
A|---------------------------------------------------------------------------------------|
E|-0h5h8-0h5h8-0h5h8-0h5h8-0h5h8-0h5h8-0h5h8-0h5h8-0h5h7-0h5h7-0h5h7-0h5h7-0h4h7-0h4h7-0-|


Guitarra 2(Kirk):


E|---------------------------------------------------------------------------------------|
B|---------------------------------------------------------------------------------------|
G|---------------------------------------------------------------------------------------|  (2x)
D|---------------------------------------------------------------------------------------|
A|---------------------------------------------------------------------------------------|
E|-0h5h8-0h5h8-0h5h8-0h5h8-0h5h8-0h5h8-0h5h8-0h5h8-0h5h7-0h5h7-0h5h7-0h5h7-0h4h7-0h4h7-0-|



E|-0h5h8-0h5h8-0h5h8-0h5h8-0h5h8-0h5h8-0h5h8-0h5h8-0h5h7-0h5h7-0h5h7-0h5h7-0h4h7-0h4h7-0-|
B|---------------------------------------------------------------------------------------|
G|---------------------------------------------------------------------------------------|  (2x)
D|---------------------------------------------------------------------------------------|
A|---------------------------------------------------------------------------------------|
E|---------------------------------------------------------------------------------------|


Partes Finais:

P.M

E|----------------------------------------------------------------|
B|----------------------------------------------------------------|
G|----------------------------------------------------------------|
D|----------------------------------------------------------------|
A|10-\-------2---------------9-\-------2--------------------------|
E|8--\-------0---------------7-\-------0--------------------------|


                                             . . . . . . . .

E|----------------------------------------------------------------|
B|----------------------------------------------------------------|
G|----------------------------------------------------------------|
D|----------------------------------------------------------------|
A|10-\-------2---------------9-\----------------------------------|
E|8--\-------0---------------7-\-------------3-2-0-0-3-2-0-0------|


                                             . . . . . . . .

E|----------------------------------------------------------------|
B|----------------------------------------------------------------|
G|----------------------------------------------------------------|
D|----------------------------------------------------------------|
A|10-\-------2---------------9-\----------------------------------|
E|8--\-------0---------------7-\-------------3-2-0-0-3-2-0-0------|



E|----------------------------------------------------------------|
B|----------------------------------------------------------------|
G|----------------------------------------------------------------|
D|--------10--9---------------------------10--9-------------------|
A|10--9---8---7---5---4---2-------10--9---8---7---5---4---2-------|
E|8---7-----------3---2---0-------8---7-----------3---2---0-------|


                      . . . . . .                     . . . . . .

E|----------------------------------------------------------------|
B|----------------------------------------------------------------|
G|----------------------------------------------------------------|
D|7-------------------7-6-5-7-6-5---7-----------------7-6-5-7-6-5-|
A|5---------4---------5-4-3-5-4-3---5-------4---------5-4-3-5-4-3-|
E|----------2-------------------------------2---------------------|



E|--------------------------------|
B|--------------------------------|
G|--------------------------------|
D|--------10--9-------------------|
A|10--9---8---7---5---4---2-------|
E|8---7-----------3---2---0-------|


Partes Finais(Final):

Guitarra 1(James)


E|------------------------------------------------|
B|------------------------------------------------|
G|------------------------------------------------|
D|------------------------------------------------|
A|------------------------------------------------|
E|0h5h8-0h5h8-0h5h8-0h5h8-0h5h8-0h5h8-0h5h8-0h5h8-|



E|------------------------------------------------|
B|------------------------------------------------|
G|------------------------------------------------|
D|---------------------------10-10-10-10-10-9-----|
A|---------------------------8--8--8--8--8--7-----|
E|0h4h7-0h4h7-0h4h7-0h4h7-------------------------|


Guitarra 2(Kirk)


E|0h5h8-0h5h8-0h5h8-0h5h8-0h5h8-0h5h8-0h5h8-0h5h8-|
B|------------------------------------------------|
G|------------------------------------------------|
D|------------------------------------------------|
A|------------------------------------------------|
E|------------------------------------------------|



E|0h4h7-0h4h7-0h4h7-0h4h7-------------------------|
B|------------------------------------------------|
G|------------------------------------------------|
D|---------------------------10-10-10-10-10-9-----|
A|---------------------------8--8--8--8--8--7-----|
E|------------------------------------------------|
Texto Colunas
Alterar tom ½ tom ½ tom
afinação acordes na letra esconder tabs mais »

Comentários 107

  • Caio Caio: Postado em 28/09/2014 - 08:08

    Alguem pode me dizer se e na Afinação Padrão??

  • douglas.c.ferreira.5 douglas.c.ferreira.5: Postado em 13/09/2014 14:14

    Musica cheio de acidentes mais deu pra tirar foi um pouco dificil mais foi

  • jhonatan jhonatan: Postado em 24/07/2014 00:18

    seria bom uma video aula de gustavo fofao... versao no violao!!!

  • rafael_kr rafael_kr: Postado em 14/07/2014 20:31

    Caraca, não tem vídeo-aula? O-o'

  • Anderson Anderson: Postado em 18/06/2014 22:41

    Video Aula

  • Anderson Anderson: Postado em 08/06/2014 20:55

    musica mt boa e bem complexa! Parabéns Metallica!!!

  • Rynam Rynam: Postado em 28/04/2014 00:14

    Musica até que é facil mas tem umas partes emboladas podiam fazer video aula ! essa merece !

  • caio.potter.545 caio.potter.545: Postado em 18/04/2014 16:10

    Esperando vídeo aula

  • igor igor: Postado em 15/04/2014 10:42

    VIDEO AULA PFV

  • alvaro.mesquita.14 alvaro.mesquita.14: Postado em 14/04/2014 22:00

    A melhor musica do mundo SIM ou CLARO?

Exibindo 10 de 107 comentários Mostrar mais ver todos »
Composição: James Hetfield / Jim Steinman / Kirk Hammett / Lars Ulrich / Lee Adams / Nicke Borg / Paulinho Da Viola / Robert Trujillo / Steven Tonge / Vince Melamed
Esse não é o compositor? Avise-nos.
Contribuição: kurt hammet Correções: Jaymes , hrickguitar e mais 16 »
  1. Até Você Voltar - Henrique e Juliano Manteve-se 101.546 exibições
  2. Domingo de Manhã - Marcos e Belutti Manteve-se 82.018 exibições
  3. Cuida Bem Dela - Henrique e Juliano Manteve-se 57.365 exibições
  4. Tudo Que Você Quiser - Luan Santana Manteve-se 49.298 exibições
  5. Choram As Rosas - Bruno e Marrone Manteve-se 48.522 exibições
  6. Recaídas - Henrique e Juliano Manteve-se 44.945 exibições
  7. Raridade - Anderson Freire Manteve-se 36.388 exibições
  8. Pra Você - Onze:20 Manteve-se 35.859 exibições
  9. Só Os Loucos Sabem - Charlie Brown Jr. Manteve-se 33.085 exibições
  10. Logo Eu - Jorge e Mateus Manteve-se 31.121 exibições
  1. Henrique e Juliano- Manteve-se 296.229 exibições
  2. Jorge e Mateus- Manteve-se 231.662 exibições
  3. Legião Urbana- Manteve-se 209.813 exibições
  4. Bruno e Marrone- Manteve-se 170.060 exibições
  5. Charlie Brown Jr.- Manteve-se 155.343 exibições
  6. Luan Santana- Manteve-se 151.312 exibições
  7. Fernandinho- Manteve-se 119.769 exibições
  8. Marcos e Belutti- Manteve-se 100.114 exibições
  9. Thalles Roberto- Manteve-se 93.296 exibições
  10. The Beatles- Manteve-se 82.801 exibições
Exibir acordes »

Cifras e tabs

Fórum Cifra Club

Aprenda

Cifra Club News

Mais Serviços Cifra Club ID

Studio Sol

©1996 - 2014 Cifra Club · o primeiro, maior e mais acessado do Brasil · 339 mil músicas · 6.3 milhões pessoas cadastradas

publicidade
fechar