Whiskey In The Jar

Metallica

 Metallica
Tom: G
		
Afinação: D  G  C  F  A  D

Introdução:  ( G5  F#5 )
             E5  G5  ( G5  F#5 )
             E5  G5

Riff da Introdução:


D|---------------------------------------------------
A|------------8--------------------------------------
F|-\7--7h9h11---9-11-7-9/12~~------------------------
C|---------------------------------------------------
G|---------------------------------------------------
D|---------------------------------------------------



D|---------------------------------------------------
A|------------8--------------------------------------
F|-\7--7h9h11---9-11-7-9/12b14r12~~------------------
C|---------------------------------------------------
G|---------------------------------------------------
D|---------------------------------------------------



D|---------------------------------------------------
A|------------8--------------------------------------
F|-\7--7h9h11---9-11-7-9/12~~------------------------
C|---------------------------------------------------
G|---------------------------------------------------
D|---------------------------------------------------



D|---------------------------------------------------
A|-----------3---------------------------------------
F|-----0h2h4---0-2h4-0-2/4-0-------------------------
C|-\5------------------------------------------------
G|---------------------------------------------------
D|---------------------------------------------------



Primeira Estrofe:

   G5
As I was goin' over
     E5
The Cook and Kerry mountains
   C5
I saw the Captain Farrell
     G5
His money he was countin'

I first produced my pistol
      E5
And then produced my rapier
       C5
I said    stand and deliver
        G5
Or the devil he may take ya

Riff 1: ( G5  F#5 )
         E5  G5  ( G5  F#5 )
         E5  G5


D|---------------------------------------------------
A|------------8--------------------------------------
F|-\7--7h9h11---9-11-7-9/12~~------------------------
C|---------------------------------------------------
G|---------------------------------------------------
D|---------------------------------------------------



D|---------------------------------------------------
A|------------8--------------------------------------
F|-\7--7h9h11---9-11-7-9/12b14r12~~------------------
C|---------------------------------------------------
G|---------------------------------------------------
D|---------------------------------------------------



D|---------------------------------------------------
A|------8-10b12-b12-10b12-b12-10-8~--8h10p8~~--------
F|-\7-9----------------------------------------------
C|---------------------------------------------------
G|---------------------------------------------------
D|---------------------------------------------------



D|---------------------------------------------------
A|-----------3---------------------------------------
F|-----0h2h4---0-2-0-2/4p2p0-------------------------
C|-\5------------------------------------------------
G|---------------------------------------------------
D|---------------------------------------------------



Segunda Estrofe:

   G5
I took all of his money
        E5
And it was a pretty penny
   C5
I took all of his money
        G5
And I brought it home to Molly

She swore that she'd love me
    E5
No never would she leave me
C5
   But devil take that woman
                G5
Yeah! For you know she tricked me easy

Primeiro Refrão:
       D5                    ( D5 C#5 C5 )
Musha rain dum-a-do dum-a-da

Whack for my daddy-o

Whack for my daddy-o, there's
G5
   Whiskey in the jar-o

(Riff do Refrão)

D|---------------------------------------------------
A|---------------------------------------------------
F|-7--7-7-7-7-7-7--7-7-7-7-6-6-5-5--5-5---------5-5-5
C|--------------------------------------x-x-x--------
G|-5--5-5-5-5-5-5--5-5-5-5-4-4-3-3--3-3--x-x-x--3-3-3
D|--------------------------------------x-x-x--------



D|---------------------------------------------------
A|---------------------------------------------------
F|------------5-5-5----------------------------------
C|-x-x-x-x-x--5-5-5---5-5-5--------------------------
G|-x-x-x-x-x--3-3-3---5-5-5--------------------------
D|-x-x-x-x-x----------3-3-3--------------------------



Riff 2:  ( G5  F#5 )
         E5  G5 ( G5  F#5 )
         E5  G5


D|---------------------------------------------------
A|------------8--------------------------------------
F|-\7--7h9h11---9-11-7-9/12~~------------------------
C|---------------------------------------------------
G|---------------------------------------------------
D|---------------------------------------------------



D|---------------------------------------------------
A|------------8--------------------------------------
F|-\7--7h9h11---9-11-7-9/12b14p12~~------------------
C|---------------------------------------------------
G|---------------------------------------------------
D|---------------------------------------------------



D|---------------------------------------------------
A|------8-10b12r10p8-10b12--10b12--8h10p8~~----------
F|-\7-9----------------------------------------------
C|---------------------------------------------------
G|---------------------------------------------------
D|---------------------------------------------------



D|---------------------------------------------------
A|-----------3---------------------------------------
F|-----0h2h4---0-2-0-2b4r2b4r2p0---------------------
C|-\5------------------------------------------------
G|---------------------------------------------------
D|---------------------------------------------------



Terceira Estrofe:

 G5
Being drunk and weary
   E5
I went to Molly's chamber
C5
   Taking Molly with me
       G5
But I never knew the danger

For about six or maybe seven
     E5
Yeah I walked Captain Farrell
C5
I jumped up with my pistols
        G5
And I shot him with both barrells

(Riff da Terceira Estrofe)

D|---------------------------------------------------
A|---------------------------------------------------
F|-/7--7--7--7--7h9-7--4~~--/9--9--9--9--9h11--9--5~~
C|---------------------------------------------------
G|---------------------------------------------------
D|---------------------------------------------------



D|---------------------------------------------------
A|---------------------------------------------------
F|-9--12--9\7-7~~--7h9--7~--7h9--7~~-----------------
C|---------------------------------------------------
G|---------------------------------------------------
D|---------------------------------------------------



D|---------------------------------------------------
A|---------------------------------------------------
F|-/7--7--7--7--7h9-7--4~~------9--9--9\5--5~~-------
C|---------------------------------------------------
G|---------------------------------------------------
D|---------------------------------------------------



D|---------------------------------------------------
A|---------------------------------------------------
F|-9-12--9\7-7~~--7h9p7~~--7h9p7~~-------------------
C|---------------------------------------------------
G|---------------------------------------------------
D|---------------------------------------------------



Segundo Refrão:
       D5                    ( D5 C#5 C5 )
Musha rain dum-a-do dum-a-da

Whack for my daddy-o

Whack for my daddy-o, there's
G5
   Whiskey in the jar-o

(Riff do Segundo Refrão)

D|---------------------------------------------------
A|---------------------------------------------------
F|-7--7-7-7-7-7-7--7-7-7-7-6-6-5-5--5-5---------5-5-5
C|---------------------------------------x-x-x-------
G|-5--5-5-5-5-5-5--5-5-5-5-4-4-3-3--3-3--x-x-x--3-3-3
D|---------------------------------------x-x-x-------



D|---------------------------------------------------
A|------------13-13-13----13-13-13-13-13-13-13-13-13-
F|---------------------------------------------------
C|-x-x-x-x-x--10-10-12----10-10-10-10-10-10-10-10-10-
G|-x-x-x-x-x-----------------------------------------
D|-x-x-x-x-x-----------------------------------------



D|---------------------------------------------------
A|-13-13-13-13--12h13-12~~---------------------------
F|---------------------------------------------------
C|-10-10-10-10---------------------------------------
G|---------------------------------------------------
D|---------------------------------------------------



Solo: ( G5  F#5 )
      E5  G5  E5  C5  G5
      G5  E5  C5  G5
      D5  ( D5  C#5 ) C5
      G5

(Parte 1)

D|---------------------------------------------------
A|------------8--------------------------------------
F|-\7--7h9h11---9-11-7-9/12~~------------------------
C|---------------------------------------------------
G|---------------------------------------------------
D|---------------------------------------------------



D|---------------------------------------------------
A|12-13-15-13-12h13p12----12----------------12-13-/15
F|---------------------14----14-12-11-12-14----------
C|---------------------------------------------------
G|---------------------------------------------------
D|---------------------------------------------------



D|---------------------------------------------------
A|-----15-17~~-15-17-19b20--b20r19~-17--15--17-15-17~
F|-/16-----------------------------------------------
C|---------------------------------------------------
G|---------------------------------------------------
D|---------------------------------------------------



D|---------------------------------------------------
A|-\12-15-13--12-----------------13p12---------------
F|----------------14--12--10--9--------14-12--10--9--
C|---------------------------------------------------
G|---------------------------------------------------
D|---------------------------------------------------



D|---------------------------------------------------
A|---------------------------------------------------
F|---------------------------------------------------
C|-12--10--9b10r9b10r9b10r9b10r9~~-------------------
G|---------------------------------------------------
D|---------------------------------------------------


(Parte 2)

D|---------------------------------------------------
A|12-13-15-13-12h13p12----12----------------12-13-/15
F|---------------------14----14-12-11-12-14----------
C|---------------------------------------------------
G|---------------------------------------------------
D|---------------------------------------------------



D|---------------------------------------------------
A|-----15-17~~-15-17-19b20--17~~--15--17-15-17~~-----
F|-/16-----------------------------------------------
C|---------------------------------------------------
G|---------------------------------------------------
D|---------------------------------------------------



D|---------------------------------------------------
A|-\12-15-13--12-------------------------------------
F|----------------14--12--10--9-------------------/7-
C|---------------------------------------7h9h10------
G|-------------------------------7h87-10--------7----
D|---------------------------------------------------



D|---------------------------------------------------
A|---------------------------------------------------
F|---/9---/12~-12~--12--12---12---~~-----------------
C|-------------12~--10--9/10-10h12~~-----------------
G|-7----7--------------------------------------------
D|---------------------------------------------------


(Parte 3)

D|---------------------------------------------------
A|---------------------------------------------------
F|-----12-14b16--14b16-14b16r14p12-----12-14-12~-----
C|-/14-----------------------------14----------------
G|---------------------------------------------------
D|---------------------------------------------------



D|---------------------------------------------------
A|---------------------------------------------------
F|-12----12--------------7------7h9--7--10--9--/12--9
C|----14-----\12-11-10~-----10-----------------------
G|---------------------------------------------------
D|---------------------------------------------------



D|---------------------------------------------------
A|---------------------------------------------------
F|-/14--12--9--12--12--12--12--12--12--12~---12-9h12-
C|---------------------------------------------------
G|---------------------------------------------------
D|---------------------------------------------------



D|-------------------15-17-15h17p15----15~-----------
A|-------------15h17----------------17---------------
F|-12/14--12~----------------------------------------
C|---------------------------------------------------
G|---------------------------------------------------
D|---------------------------------------------------



Riff 3:  ( G5  F#5 )
         E5  G5  E5  G5

(Guitarra 1)

D|---------------------------------------------------
A|------------8--------------------------------------
F|-\7--7h9h11---9-11-7-9/12~~------------------------
C|---------------------------------------------------
G|---------------------------------------------------
D|---------------------------------------------------



D|---------------------------------------------------
A|------------8--------------------------------------
F|-\7--7h9h11---9-11-7-9/12b14p12~~------------------
C|---------------------------------------------------
G|---------------------------------------------------
D|---------------------------------------------------



D|---------------------------------------------------
A|------8-10b12-10b12-10b12-10b12r10--8h10-8~~-------
F|-\7-9----------------------------------------------
C|---------------------------------------------------
G|---------------------------------------------------
D|---------------------------------------------------



D|---------------------------------------------------
A|-----------3---------------------------------------
F|-----0h2h4---0-2-0-2b4r2--2b4r2--0-----------------
C|-\5------------------------------------------------
G|---------------------------------------------------
D|---------------------------------------------------


(Guitarra 2)

D|---------------------------------------------------
A|---------------------------------------------------
F|-------------9-------------------------------------
C|-\9--9h10h12---10-12-9-10/12~~---------------------
G|---------------------------------------------------
D|---------------------------------------------------



D|---------------------------------------------------
A|---------------------------------------------------
F|-------------9-------------------------------------
C|-\9--9h10h12---10-12-9-10/12~~---------------------
G|---------------------------------------------------
D|---------------------------------------------------



D|---------------------------------------------------
A|---------------------------------------------------
F|---------------------------------------------------
C|-\9-10-12-12b14-12b14-12b14-12b14r12~--10h12-9~----
G|---------------------------------------------------
D|---------------------------------------------------



D|---------------------------------------------------
A|---------------------------------------------------
F|----------0----------------------------------------
C|-0--0h2h4---2-4-0-2b4r2-2b4r2-0--------------------
G|---------------------------------------------------
D|---------------------------------------------------



Quarta Estrofe:

Now some men like the fishing
     Em
And some men like the fowling
C
  And some men like the hear
     G5
The hear cannon ball a roaring

Me I like sleeping
  Em
Specially in my Molly's chamber
C
   But here I am in prison
       G5
Here I am with a ball and chain, yeah

(Riff da Quarta Estrofe)

D|---------------------------------------------------
A|---------------------------------------------------
F|-7--7-7-------7--7--7-7-7---7/9--9-9--9------------
C|---------------------------------------------------
G|-5--5-5---3/5-5--5--5-5-5---5/7--7-7--7------------
D|---------------------------------------------------



D|---------------------------------------------------
A|---------------------------------------------------
F|-7/9--9-9-9\7--7\5-5--5-5------5-5-----5-5-----5-5-
C|---------------------------------------------------
G|-5/7--7-7-7\5--5\3-3--3-3--2/3-----2/3-----2/3-----
D|---------------------------------------------------



D|---------------------------------------------------
A|---------------------------------------------------
F|-----7-7-----7-7--7-7-7-7-7-7-7-7------------------
C|---------------------------------------------------
G|-3/5-----3/5------5-5-5-5-5-5-5-5------------------
D|---------------------------------------------------



Refrão:

       D5                    ( D5 C#5 C5 )
Musha rain dum-a-do dum-a-da

Whack for my daddy-o

Whack for my daddy-o, there's
G5
   Whiskey in the jar-o

Riff 4: ( G5  F#5 )
        E5  G5  E5  G5

(Guitarra 1)

D|---------------------------------------------------
A|------------8--------------------------------------
F|-\7--7h9h11---9-11-7-9/12~~------------------------
C|---------------------------------------------------
G|---------------------------------------------------
D|---------------------------------------------------



D|---------------------------------------------------
A|------------8--------------------------------------
F|-\7--7h9h11---9-11-7-9/12b14r12~~------------------
C|---------------------------------------------------
G|---------------------------------------------------
D|---------------------------------------------------



D|---------------------------------------------------
A|------------8--------------------------------------
F|-\7--7h9h11---9-11-7-9/12~~------------------------
C|---------------------------------------------------
G|---------------------------------------------------
D|---------------------------------------------------



D|---------------------------------------------------
A|-----------3---------------------------------------
F|-----0h2h4---0-2-0-4p2p0---------------------------
C|-\5------------------------------------------------
G|---------------------------------------------------
D|---------------------------------------------------


(Guitarra 2)

D|---------------------------------------------------
A|---------------------------------------------------
F|-------------9-------------------------------------
C|-\9--9h10h12---10-12-9-10/12~~---------------------
G|---------------------------------------------------
D|---------------------------------------------------



D|---------------------------------------------------
A|---------------------------------------------------
F|-------------9-------------------------------------
C|-\9--9h10h12---10-12-9-10/12~~---------------------
G|---------------------------------------------------
D|---------------------------------------------------



D|---------------------------------------------------
A|---------------------------------------------------
F|-------------9-------------------------------------
C|-\9--9h10h12---10-12-9-10/12~~---------------------
G|---------------------------------------------------
D|---------------------------------------------------



D|---------------------------------------------------
A|---------------------------------------------------
F|----------0----------------------------------------
C|-0--0h2h4---2-4-0-4p2p0----------------------------
G|---------------------------------------------------
D|---------------------------------------------------



(Yeah! Whiskey in the jar-o)

Final:
     ( G5 )
Musha rain dum-a-do dum-a-da
Musha rain dum-a-do dum-a-da
Musha rain dum-a-do dum-a-da
Musha rain dum-a-do dum-a-da

(Riff do Final)

D|---------------------------------------------------
A|-------0-----------------------3-------------------
F|-0h2h4----x--0h2h4p0--x--0h2h4----x--0h2h4-0--x----   (4x)
C|---------------------------------------------------
G|---------------------------------------------------
D|---------------------------------------------------



D|---------------------------------------------------
A|---------------------------------------------------
F|-0h2h4-0-------------------------------------------
C|---------------------------------------------------
G|---------------------------------------------------
D|---------------------------------------------------



( G5 )

Comentários 40

  • jvfig jvfig: Postado em 20/09/2014 18:33

    vim so pra aprender o solo, metallica melhor banda de todos os tempos

  • alecioatto alecioatto: Postado em 20/03/2013 20:55

    FODÂO

  • __rocker__ __rocker__: Postado em 18/03/2013 14:39

    Música muito boa levei um tempinho pra pegar, mas finalmente posso dizer que toco ela direito.E aliás a versão do MetallicA é melhor!

  • __rocker__ __rocker__: Postado em 18/03/2013 14:12

    música muito boa levei um tempinho pra pegar, mas finalmente posso dizer que toco ela direito.E aliás a versão do MetallicA é melhor!

  • cassianocsn cassianocsn: Postado em 15/01/2013 14:46

    boa de mais

  • vithorskovsk vithorskovsk: Postado em 13/01/2013 19:24

    muito loko essa musica do Metallica!!!
    uma das minhas favoritas!!!

    • João Victor João Victor : Postado em 24/04/2013 16:01

      Não é do metallica é um cover

  • fabiano102030 fabiano102030: Postado em 31/12/2012 15:28

    isso e facil quero ver uma Video aula de Through The Fire And Flames

Exibindo 10 de 40 comentários Mostrar mais ver todos »
Composição: Davi Moraes / Jörgen Elofsson
Esse não é o compositor? Avise-nos.
Contribuição: mcl Correções: gustavo.lacerda , Jhonny e mais 8 »
Exibir acordes »
publicidade
fechar