Kids

MGMT

 MGMT
Tom: A
		

E|-----------------------------------------------------------------------|
B|--------------6--8--10--8--6-------------------------------------------|
G|-----3--5--7------------------7--5-------------------------------------| 5x
D|-----------------------------------------------------------------------|
A|-----------------------------------------------------------------------|
E|-----------------------------------------------------------------------|



E|-----------------------------------------------------------------------|
B|-----------3--1-----1--------3-----------------------------------------|
G|-----3--5--------3-----3--0--------------------------------------------|
D|-----------------------------------------------------------------------|
A|-----------------------------------------------------------------------|
E|-----------------------------------------------------------------------|


OBS: fica melhor em power chord

Fm         D
You were a child
                A               E
Crawling on your knees toward it
 Fm         D
Making momma so proud
 A                   E     Fm D
But your voice is too loud
                  A     E
We like to watch you laughing
   Fm               D
Picking insects off plants
A                   E
No time to think of consequences

Chorus


E|-----------------------------------------------------------------------|
B|--------------6--8--10--8--6-------------------------------------------|
G|-----3--5--7------------------7--5-------------------------------------| 3x
D|-----------------------------------------------------------------------|
A|-----------------------------------------------------------------------|
E|-----------------------------------------------------------------------|



E|-----------------------------------------------------------------------|
B|-----------3--1-----1--------3-----------------------------------------|
G|-----3--5--------3-----3--0--------------------------------------------|
D|-----------------------------------------------------------------------|
A|-----------------------------------------------------------------------|
E|-----------------------------------------------------------------------|


( Fm D A E )
Control yourself

Take only what you need from it

A family of trees wanted to be haunted

Control yourself

Take only what you need from it

A family of trees wanted to be haunted


( Fm D A E )
The water is warm

But it's sending me shivers

A baby is born

Crying out for attention

Memories fade

Like looking through a fogged mirror

Decisions to decisions are made and not bought

But I thought this wouldn't hurt a lot

I guess not

Chorus 6x)

(riffs usados na introdução e na musica)

E|-----------------------------------------------------------------------|
B|--------------6--8--10--8--6-------------------------------------------|
G|-----3--5--7------------------7--5-------------------------------------|
D|-----------------------------------------------------------------------|
A|-----------------------------------------------------------------------|
E|-----------------------------------------------------------------------|



E|-----------------------------------------------------------------------|
B|--------------6--8--10--8--6-------------------------------------------|
G|-----3--5--7------------------7--5-------------------------------------|
D|-----------------------------------------------------------------------|
A|-----------------------------------------------------------------------|
E|-----------------------------------------------------------------------|



E|-----------------------------------------------------------------------|
B|-----------3--1-----1--------3-----------------------------------------|
G|-----3--5--------3-----3--0--------------------------------------------|
D|-----------------------------------------------------------------------|
A|-----------------------------------------------------------------------|
E|-----------------------------------------------------------------------|
Texto Colunas
Alterar tom ½ tom ½ tom
afinação acordes na letra esconder tabs mais »

Comentários (3)

  • laricasablancas laricasablancas: Postado em 21/02/2012 15:45

    troquem G#m por E fica bem melhor.

  • m_c_r_g_n_r m_c_r_g_n_r: Postado em 09/12/2011 19:26

    mi fica muito alto n dá

  • nsoueu nsoueu: Postado em 01/10/2011 19:57

    eu acho q é mi em invés de sol sustenido menor

Composição: E. Blake / LeMel Humes / Scott Borland / Sunny Skylar
Esse não é o compositor? Avise-nos.
Contribuição: fefatale Correções: Fernando , torlinos e mais 5 »
  1. Tudo Que Você Quiser - Luan Santana Manteve-se 5.838 exibições
  2. Lepo Lepo - Psirico Manteve-se 4.258 exibições
  3. Mozão - Lucas Lucco Manteve-se 4.092 exibições
  4. Logo Eu - Jorge e Mateus Manteve-se 3.677 exibições
  5. Gaveta - Fernando e Sorocaba Manteve-se 3.251 exibições
  6. Só Os Loucos Sabem - Charlie Brown Jr. Manteve-se 2.945 exibições
  7. Pra Você - Onze:20 Manteve-se 2.783 exibições
  8. Tempo Perdido - Legião Urbana Manteve-se 2.356 exibições
  9. Fui Fiel - Gusttavo Lima Manteve-se 2.236 exibições
  10. Na Linha do Tempo - Victor e Leo Manteve-se 2.111 exibições
  1. Jorge e Mateus- Manteve-se 22.167 exibições
  2. Legião Urbana- Manteve-se 19.327 exibições
  3. Luan Santana- Manteve-se 17.248 exibições
  4. Charlie Brown Jr.- Manteve-se 16.750 exibições
  5. Fernandinho- Manteve-se 14.218 exibições
  6. Thalles Roberto- Manteve-se 10.904 exibições
  7. Católicas- Manteve-se 10.314 exibições
  8. Aline Barros- Manteve-se 10.062 exibições
  9. Victor e Leo- Manteve-se 10.039 exibições
  10. Gusttavo Lima- Manteve-se 9.893 exibições
Exibir acordes »

Cifras e tabs

Fórum Cifra Club

Aprenda

Cifra Club News

Mais Serviços Cifra Club ID

Studio Sol

©1996 - 2014 Cifra Club · o primeiro, maior e mais acessado do Brasil · 329 mil músicas · 5.9 milhões pessoas cadastradas

publicidade
fechar