Motivo Especial

Militantes

 Militantes
Tom: C
		
Intro: 4x


E ------------------------------------------------------------
A --3--------7---------8-----------10-------------------------
D --5--------9---------10----------12-------------------------
G ------------------------------------------------------------
B ------------------------------------------------------------
e ------------------------------------------------------------

        Na Na                                                          Nanana Na na

Verso1

E ---------------------------------------------------3---------
A ----3-----1---------3-----1--------3-----1---------5---------
D ----5-----3---------5-----3--------5-----3---------5---------
G -------------------------------------------------------------
B -------------------------------------------------------------
e -------------------------------------------------------------

           Vou       Fazer uma Canção    Que fale do Amor   Que vem do Senhor   

Solo:
         (Rápido)

E -------------------------------------------------------------
A ----------------7--5--3--------------------------------------
D ----------7--5-----------------------------------------------
G ----7--5-----------------------------------------------------
B -------------------------------------------------------------
e -------------------------------------------------------------


         

E -------------------------------------------------------3-----
A ----3-----1---------3-----1--------3-----1-------------5-----
D ----5-----3---------5-----3--------5-----3-------------5-----
G -------------------------------------------------------------
B -------------------------------------------------------------
e -------------------------------------------------------------

           Eu           Quero     Falar        Quero       Cantar         Pro cordeiro de Deus

Solo:
         (Rápido)

E -------------------------------------------------------------
A ----------------7--5--3--------------------------------------
D ----------7--5-----------------------------------------------
G ----7--5-----------------------------------------------------
B -------------------------------------------------------------
e -------------------------------------------------------------




E --5--------------------5---------------------------
A --7------7 > 8---------7-------7 > 8---------------
D --7------9 > 10--------7-------9 > 10--------------
G ---------------------------------------------------
B ---------------------------------------------------
e ---------------------------------------------------

      Não há   outro Motivo   tão  Especial  pra Declarar      com a Minha     


E --5------------------------------------------------
A --7------7 > 8--------------10---------------------
D --7------9 > 10-------------12---------------------
G ---------------------------------------------------
B ---------------------------------------------------
e ---------------------------------------------------

       Voz      Nessa Canção Que Vai Ultrapassar

Refrão:

E ----------------------------------6-------------3---
A ---3------------------8-----------8-------------5---
D ---5------------------10----------8-------------5---
G ----------------------------------------------------
B ----------------------------------------------------
e ----------------------------------------------------

       Ultrapassar as Barreiras do Céu        e vai chegar ao Trono de Deus


E ---------------------------------------6-------------3---
A ------------3---------8----------------8-------------5---
D ------------5---------10---------------8-------------5---
G ---------------------------------------------------------
B ---------------------------------------------------------
e ---------------------------------------------------------

      Vai passar na TV   Top 20 Brasil   No seu rádio vai estar em todas as Estações

Intro:

Verso2

E ----------------------------------------------------3------
A --3----1---------3-----1---------3------1-----------5------
D --5----3---------5-----3---------5------3-----------5------
G -----------------------------------------------------------
B -----------------------------------------------------------
e -----------------------------------------------------------

     Deus         Queremos tocar        as nossas Músicas  pro Mundo todo Ouvir

Solo:
         (Rápido)

E -------------------------------------------------------------
A ----------------7--5--3--------------------------------------
D ----------7--5-----------------------------------------------
G ----7--5-----------------------------------------------------
B -------------------------------------------------------------
e -------------------------------------------------------------



E -----------------------------------------------------3-------
A --3---1------------3------1--------3------1----------5-------
D --5---3------------5------3--------5------3----------5-------
G -------------------------------------------------------------
B -------------------------------------------------------------
e -------------------------------------------------------------

   Pai,  que a tua salvação  possa alcançar  o Mundo Inteiro 

Solo:
         (Rápido)

E -------------------------------------------------------------
A ----------------7--5--3--------------------------------------
D ----------7--5-----------------------------------------------
G ----7--5-----------------------------------------------------
B -------------------------------------------------------------
e -------------------------------------------------------------



E --5--------------------5---------------------------
A --7------7 > 8---------7-------7 > 8---------------
D --7------9 > 10--------7-------9 > 10--------------
G ---------------------------------------------------
B ---------------------------------------------------
e ---------------------------------------------------

      Não há   outro Motivo   tão  Especial  pra Declarar      com a Minha     


E --5------------------------------------------------
A --7------7 > 8--------------10---------------------
D --7------9 > 10-------------12---------------------
G ---------------------------------------------------
B ---------------------------------------------------
e ---------------------------------------------------

       Voz      Nessa Canção Que Vai Ultrapassar

Refrão:

Vai...
       

E ---------------------------------------------------------------
A ---3--------8--8-----8--8------------3----------8--8-----8--8--
D ---5--------10-10----10-10-----------5----------10-10----10-10-
G ---------------------------------------------------------------
B ---------------------------------------------------------------
e ---------------------------------------------------------------


Refrão
     
Intro:

Final:

              C

E ---------------------------------------------------------------
A -----3----------------------------------------------------------
D -----5----------------------------------------------------------
G ---------------------------------------------------------------
B ---------------------------------------------------------------
e ---------------------------------------------------------------
6.838 exibições

Comentários 0

Composição: Fábio Custódio
Esse não é o compositor? Avise-nos.
Contribuição: Otávio
Consegui tocarAinda não conseguiram tocar essa música. Seja o primeiro!
    Não consegui tocar
    Exibir acordes »
    publicidade
    fechar