Canção da América

Milton Nascimento

 Milton Nascimento
Tom: G
		
Intro:

E|--10--10----10----10--11--12--10--10---8---8--8---8--|
B|--10--10----10----10--10--10--10--10---8---8--8---8--|
G|--11--11----11----11--11--11---9--9----9---9--9---9--|
D|---------------------0--------------------------0----|
A|-----------------------------------------------------|
E|-----------------------------------------------------|



E|-8--8--8--7--7--7---3--3--5--5--5--5--5------|
B|-8--8--8--7--7--7---5--5--7--7--7--7--7------|
G|-9--9--9--7--7--7---5--5--7--7--7--7--7------|
D|-0----------------0--------------------------|
A|---------------------------------------------|
E|---------------------------------------------|



E|--10--10----10----10---11--12--10--10---8---8--8---8--|
B|--10--10----10----10---10--10--10--10---8---8--8---8--|
G|--11--11----11----11---11--11---9--9----9---9--9---9--|
D|---------------------0--------------------------------|
A|------------------------------------------------------|
E|------------------------------------------------------|



E|-8--8--8--8--8--7--7--7---3--3--5--5--5--5--5--------|
B|-8--8--8--8--8--7--7--7---5--5--7--7--7--7--7--------|
G|-9--9--9--9--9--7--7--7---5--5--7--7--7--7--7--------|
D|------------------------0----------------------------|
A|-----------------------------------------------------|
E|-----------------------------------------------------|



 C/E               D7
Amigo é coisa prá se guardar
G       Em7     D/F#     D    D/F#
Debaixo de sete chaves
C/E    D7         G    Am7               D
Dentro do cora...ção, assim falava a canção
D/C    D/A        D/F#    G   Am7  G
Que na Amé....ri...ca   ouvi
           Em7
Mas quem cantava chorou
   G/A        A7      C/E    D7   D7/4  D7
Ao ver o seu amigo partir

            D   D/C  D/A      D7  C/E      D7
Mas quem ficou            no pensamento voou
         G         C/E         D7    D7/4   D7
Com seu canto que o outro lembrou
          D    D/C  D/A     D7   C/E    D7
E quem voou              no pensamento ficou
          G          C/E        D7
Com a lembrança que o outro cantou

C/E     D7
Amigo é coisa prá se guardar
G         Em7       D/F#   D   D/F#
No lado esquerdo do peito
Am7                  G  D/F#   C/E  D  C   G/B   Am7   C/E  Am7
Mesmo que o tempo e  a distân  cia     di  gam   não
D      D/C   D/A         D/F#    G   Am7   G
Mesmo esque  cen...do a  can....ção
          Em7
E o que importa é ouvir
 G/A          A7      C/E    D7   D7/4   D7
A voz que vem do coração

    C/E          D7    C/E            G
Pois seja o que vier,   venha o que vier
G            D/F#  C/E      D/F#   C/E           G    D/F#
Qualquer dia, a    migo, eu volto   a   te encontrar
Em7                   G/A    A7           C/E    D7  D7/4   D7
Qualquer dia, amigo, a gente vai se encontrar

   C/E          D7    C/E            G
Pois seja o que vier,   venha o que vier
G            D/F#  C/E      D/F#   C/E           G    D/F#
Qualquer dia, a    migo, eu volto   a   te encontrar
Em7                   G/A    A7           C/E    D7  D7/4   D7
Qualquer dia, amigo, a gente vai se encontrar

Comentários 2

Composição: Die Lutter / Fernando Brant / Gilberto Timbaleiro / Jamal Jones / Leslie Pridgen / Milton Nascimento
Esse não é o compositor? Avise-nos.
Contribuição: Fred Correções: lucascolferai e mais 2 »
Exibir acordes »
publicidade
fechar