Milton Nascimento

Travessia

180.313 exibições
Tom: A
Introdução:


   A7M(9)                 E4(7)
E|0-----5----5------5-----7---5--4---5-----
B|0-----0----0------0-----0---0--0---0-----
G|6-----6----6------7-----7---7--7---7-----
D|-----------------------------------------
A|-----------------------------------------
E|0--0----0----0-0----0-----0------0---0---


   A7M(9)             E4(7)
E|7-----5----4-------5----7----5--4----5---
B|0-----0----0-------0----0----0--0----0---
G|6-----6----6-------7----7----7--7----7---
D|-----------------------------------------
A|-----------------------------------------
E|0--0----0----0--0-----0---0--------0---0-



A7M(9)                 D#m7   E/D
       Quando você foi  embora
     A7M(9)      E4(7) A7M(9)  E4(7)
Fez-se noite em meu viver
    A7M(9)        G#m7(11) F#m7     B7(9)
Forte eu sou mas não tem________jeito
         A4(7/9) A7(9-)    A6    A4(6/9)
Hoje eu tenho que chorar
    D5(9)   G  G#m7(11)   C#m7(9)
Minha casa não é minha
      F#m7    A/E     D#m7  E/D
E nem é meu   este lugar
   A7M(9)   E4(7) A7M(9)  F#m7
Estou só e não resisto
       B7(9)  Em7(9)
Muito tenho pra falar

(Introdução)

Refrão:
      A7M(9)        A4(7/9)
Solto a voz nas estradas
    F#m7        C#m7(9)
Já não quero parar
       D5(9)      E/D
Meu caminho é de pedras
      F#m7  B7(9)  Em7(9)  E7
Como posso sonhar
    A7M(9)       A4(7/9)
Sonho feito de brisa
    F#m7        C#m7(9)
Vento vem terminar
        D5(9)     E/D
Vou fechar o meu canto
        Bm7 E7
Vou querer me matar

Estrofe:
A7M(9)                    D#m7   E/D
       Vou seguindo pela vi_____da
       A7M(9)  E4(7) A7M(9)  E4(7)
Me esquecendo de  você
    A7M(9)    G#m7(11) F#m7  B7(9)
Eu não quero mais a   morte
       A4(7/9)  A7(9-)  A6  A4(6/9)
Tenho muito   que    viver
        D5(9) G      G#m7(11) C#m7(9)
Vou querer  amar de novo
      F#m7    A/E        D#m7  E/D
E se não der não vou sofrer
         A7M(9)  E4(7) A7M(9)  F#m7
Já não sonho,   hoje  faço
          B7(9)  Em7(9)
Com meu braço o meu viver

(Introdução)

Refrão:

      A7M(9)        A4(7/9)
Solto a voz nas estradas
    F#m7        C#m7(9)
Já não quero parar
       D5(9)      E/D
Meu caminho é de pedras
      F#m7  B7(9)  Em7(9)  E7
Como posso sonhar
    A7M(9)       A4(7/9)
Sonho feito de brisa
    F#m7        C#m7(9)
Vento vem terminar
        D5(9)     E/D
Vou fechar o meu pranto
        Bm7 E7
Vou querer me matar

Estrofe:
A7M(9)                    D#m7   E/D
       Vou seguindo pela vi_____da
       A7M(9)  E4(7) A7M(9)  E4(7)
Me esquecendo de  você
    A7M(9)    G#m7(11) F#m7  B7(9)
Eu não quero mais a   morte
       A4(7/9)  A7(9-)  A6  A4(6/9)
Tenho muito   que    viver
        D5(9) G      G#m7(11) C#m7(9)
Vou querer  amar de novo
      F#m7    A/E        D#m7  E/D
E se não der não vou sofrer
         A7M(9)  E4(7) A7M(9)  F#m7
Já não sonho,   hoje  faço
          B7(9)  Em7(9)
Com meu braço o meu viver

(Introdução)
Estrofe:

   A7M(9)           D#m7      E/D
E|----0-----------------6--------4---------
B|----0-------0---------7--------5---------
G|----6-------6-------6---6----4---4-------
D|--6---------6--------------0-------------
A|0--------0----0--6-----------------------
E|------0----------------------------------


   A7M(9) E4(7)  A7M(9)    E4(7)     A7M(9)
E|----0-----------------0----------------0-
B|----0-------0---------0-------0--------0-
G|----6-------7---------6-------7--------6-
D|--6---------7-------6---------7------6---
A|0--------0-------0---------0-------0-----
E|------0-------0---------0--------0-------


     G#m7(11)  F#m7      B7(9)    A4(7/9) A7(9-)
E|-----------------------------------------
B|-------2---------2--------2-------3-----2
G|-------4---------2--------2-------4-----3
D|----4----4-----2---2----1---1-----5-----5
A|----------------------2--------0----0-0--
E|0-4---------2----------------------------


   A6     A4(6/9)   D5(9)     G
E|----------------------0------------------
B|----5--3--3--3--------3---------3--------
G|----6--4--4--4------2---2-------0--------
D|----4--4--4--4----0----------0-----0-----
A|0-0----0--------0------------------------
E|---------------------------3-------------


   G#m7(11) C#m7(9)   F#m7    A/E
E|-----------------------------------------
B|-----2--------4--------2--------2--------
G|-----4--------4--------2--------2--------
D|---4---4----2---2----2---2----2---2------
A|----------4------------------------------
E|4------------------2--------0------------


   D#m7     E/D     A7M(9)  E4(7)   A7M(9)
E|----6-------4---------0---------------0--
B|----7-------5---------0-------0-------0--
G|--6---6-----4---------6-------7-------6--
D|---------0-----0----0---------7-----0----
A|6-----------------0---------0-----0------
E|-------------------------0------0-------0


   F#m7     B7(9)     Em7(9)
E|-----------------------------------------
B|----2---------2---------3----------------
G|----2---------2---------0----------------
D|--2---2-----1---1-------4----------------
A|---------2-----------2-------------------
E|2------------------0---------------------


Refrão:


   A7M(9)        A4(7/9)            F#m7
E|----0----------------3-------------------
B|----0-------0--------3------3---------2--
G|----6-------6--------4------4---------2--
D|--6---------6------5--------5------2----2
A|0--------0-------0--------0--------------
E|------0-------0---------0-----0--2-------


          C#m7(9)         D5(9)
E|----------------------------0------0-----
B|--2--------4-------4--------3------3-----
G|--2--------4-------4------2----2---2-----
D|--2------2---2-----2----0--------0----0--
A|-------4--------4----4-------------------
E|2---2------------------------------------


   E/D               F#m7     B7(9)
E|----4-------4----------------------------
B|----5-------5---------2---------2--------
G|--4---4-----4---------2---------2--------
D|0--------0-----0----2---2-----1---1------
A|----------------------------2------------
E|------------------2----------------------


   Em7(9)  E7
E|-----------------------------------------
B|----3------0-----------------------------
G|----0------1-----------------------------
D|----4------0-----------------------------
A|--2--------------------------------------
E|0------0-----0---------------------------


   E/D                 Bm       E
E|----4-------4----------------------------
B|----5-------5-----------3-------0--------
G|--4---4-----4-----------2-------1--------
D|0--------0-----0------4---4-----2--------
A|--------------------2--------------------
E|-----------------------------0-----------
    Composição: Fernando Brant / Milton NascimentoColaboração e revisão:
    • Felipe

    Comentários 7

    • robertopassosv robertopassosv: Postado em 23/12/2013 22:08

      Excelente aula!!

    • robertopassosv robertopassosv: Postado em 23/12/2013 22:05

      Ótima aula!

    • Gigulejo Gigulejo: Postado em 07/05/2013 22:15

      Valeu!!!!! Excelente video-aula...

    • Karen Karen: Postado em 26/04/2013 08:49

      mt obrigado equipe cifra club! Pela video aula

    • gutohvr gutohvr: Postado em 25/04/2013 23:49

      gostei ficou muito boa a vídeo aula

    • tim1892 tim1892: Postado em 04/04/2013 13:40

      sem video aula... :(

    • ehnois ehnois: Postado em 31/07/2012 16:45

      Sem vídeo aula impossível!

    conseguiu tocar?

    • joseguilherme
    • danielpc
    • zed23
    • robertopassosv
    • tatagiba31
    0:00 / 0:00

    Capítulos

      1 versão de violãodificuldadeexibiçõescontribuição e correção
      1 versão de guitarradificuldadeexibiçõescontribuição e correção
      1 versão de cavacodificuldadeexibiçõescontribuição e correção
      1 versão de tecladodificuldadeexibiçõescontribuição e correção
      play/pausefechar subir/descer velocidade
      6ª corda E5ª corda A4ª corda D3ª corda G2ª corda B1ª corda E
        acordes
        publicidad
        fechar
        ok