Gratidão

Ministério Adoração e Vida

 Ministério Adoração e Vida Compositor: Walmir Alencar
Tom: F
		
Introd: |  F  C/E  |  Bb9/D  |  Eb9  |  Bb/D Bb/C  |

Bb/C       F          C/E         Dm
Eu encontrei um amor perfeito
          Gm                      Bb7M           C    Bb  C
Um tesouro escondido diante deste altar
           F           C/E       Dm  Gm        Bb            C   Bb/C
Seu valor é maior que tudo, nada poderá se igualar

F                            Dm
Te adorarei com todo meu ser
                                  Gm  Am   Bb      Dm            C
Quando estou mais perto de ti, fortaleces o meu viver
F                            Dm
Te exaltarei com meu coração
         Gm               Am   Bb           C                     F          Bb9  ( Bb/C  F )
Majestade, estou aqui para te render meu amor, minha gratidão

A quem irei se tua voz é vida?
Tua presença é tão clara e tão forte como o sol
Sou feliz porque sei que vivo estás, tudo que me resta é te amar

Db             Ab
Levantarei minhas mãos
Db                       Eb     F           Eb
Minha adoração irá tocar o céu
Db                     Fm Eb                                Csus4 C
Forte cantarei,               te adorarei, Pão da Vida

Solo: |  Ab  |  Db  Eb  |  Fm  |  Eb  Ab/C  |  Db  |  Csus4 C  |  %  |


E|----------------11-----------------------------13-15-16-15-15h16~~------------|
B|---------8-9-11b--11b-11~~---9-8-8h9~~---13-16--------------------------------|
G|-3/5-7/9-------------------------------15-------------------------------------|
D|------------------------------------------------------------------------------|
A|------------------------------------------------------------------------------|
E|------------------------------------------------------------------------------|



E|--------------16-------------------------------------------12h13-13/15~~------|
B|---16-16~~-16---16-14-13-14-14h16-----------13h14-13--------------------------|
G|-17------------------------------13~~-13-15---------15~~-13-------------------|
D|------------------------------------------------------------------------------|
A|------------------------------------------------------------------------------|
E|------------------------------------------------------------------------------|

Comentários 2

  • Willian Willian: Postado em 12/10/2013 10:55

    merecia vídeo aula ,.

  • snakpitydark snakpitydark: Postado em 25/06/2012 11:47

    merecia mais video aulas

Composição: Sabe quem é o compositor? Envie pra gente. Contribuição: Neto Correções: geoito e mais 2 »
Exibir acordes »
publicidade
fechar