Tom: F
		
Intro: D4  D9  Dm  D4  Bb  Bb9  F4  F  C  Gm  F/A  G/B  D4  D9  Dm


E|----3-0-0h1-1-3---------------------------------------------------3p1-1-|
B|-1------------------3---1---------------------------1-------------------|
G|----------------------------3-3-2-----0---0-2-3-2-3----3-2-2------------|
D|------------------------------------3-----------------------------------|
A|------------------------------------------------------------------------|
E|------------------------------------------------------------------------|

       Dm   Bb  Bb9      F          F9
    São tantos luga..res por onde Ele andou
Bb                         F/A  F9
    Terras, rios e mares tocou
Gm7            C           Dm     A
    Naquele caminho,           que o cego o esperou,
Gm                 C/E     Dm   D9  Dm5+  Dm/F  A7/E
    No poço em Samaria passou
Dm                  Bb       F      F9
    Na aldeia de leprosos, amigos achou
Bb                      F/A  C/G  F
    Rumo à Emaús, consolou!
Gm7               C     A7     Dm        A
    Na árvore um homem      de longe Ele avistou,
Gm            C/E    F   A7
    e em sua casa ficou!

         Dm       Bb        F     C
O mesmo Deus e Senhor hoje passa aqui
Dm                     Bb          F    C
A nossa história     também quer tocar
      Dm            Bb  Bb9  Bb             F        C
Com a mesma força e po...der,        e incansável amor!
  Gm     Am           F       C    Gm7       A                   C9
Que procura a quem transformar,     que transforma a quem encontrar!

Base do solo: D4  D9  Dm  D4  Bb  Bb9  F4  F  C  Gm  F/A  G/B

Solo:


E|----3-0-0h1-1-3-------------------------3-5-6-5-6-8-6-5-5--|
B|-1------------------3---1----------------------------------|
G|----------------------------3-3-2-----0--------------------|
D|------------------------------------3----------------------|


D9          Dm    Bb    Bb9       F
    Hoje em minha vida,     onde eu estiver,
Bb                   F/A
    Ele continua a passar!
Gm             C    A7   Dm          A
    Incansavelmente    insiste em me visitar,
Gm                C          F   A
    E em meu coração quer ficar!

         Dm    D4  Bb  Bb9  Bb       F      C
O mesmo Deus e Senhor          hoje passa aqui
           Dm        Bb         C4  C
A nossa história também quer tocar
     D9     Dm           Bb9      F/A     C
Com a mesma força e po...der, incansável amor!
         Gm7    Am        Bb7+  C           Gm       F/A       C4   C
Que procura a quem transformar,     que transforma a quem encontrar!

Mudança de tom: Em  C  G  D  Em  C  B


E|----5-2-2h3-3-5--------10-8-8-7-3-5---3-5-7-7-0-3-3-5-7--|
B|-3------------------5------------------------------------|
G|---------------------------------------------------------|
D|---------------------------------------------------------|


         Em        C        G      D
O mesmo Deus e Senhor hoje passa aqui
           Em7       C          D4  D
A nossa história também quer tocar
             Em        C         G      D/F#
Com a mesma força e poder, incansável amor!
       Am7     G/B          C7+  D          Am       G/B    C  D4  D  D9  D
Que procura a quem transformar,    que transforma a quem encontrar!

(Em  C  G  D  Em  C  G  D)
4.203 exibições

Comentários 0

Composição: Walmir Alencar
Esse não é o compositor? Avise-nos.
Contribuição: lukinhasgomes Correções: Isaias , Zanardi e mais 5 »
Exibir acordes »
publicidade
fechar