Do meu interior

Ministério Além do Véu

 Ministério Além do Véu
Tom: A
		
Intro 4x: D9  A9  E 


    D                  A           E
E|---------------9------------9----------------------|
B|---------10--------------10--10--12--9-------------|
G|--9--11----9---------9--------------------9--------|
D|---------------------------------------------------|
A|---------------------------------------------------|
E|---------------------------------------------------|


                D9         A9             E
Se por mil vezes falhei, Deus tu foste fiel
    D9                A9                  E
E se outra vez tropeçar, em Tua graça estarei
       F#m7      D9        A9         E
Para sempre, Tua luz eu sei que brilhará
          F#m7  D9   A9           E
Infindável , Tua glória permanecerá    (Intro) 2x

  D9        A9             E
A Tua vontade Senhor, obedecerei
            D9       A9                E
A arte de te me perder, ao dar -te louvor
       F#m7   D9           A9         E
Para sempre, Tua luz eu sei que brilhará
       F#m7    D9    A9          E
Infindável, Tua glória permanecerá
D9         A9                F#m7
Do meu coração, o controle te dou,
                         E
Consome meu interior, Deus
 D9          F#m7                 E
Justiça e louvor, me envolvam Senhor
                    Bm
Pra te amar de coração    (Intro)

      F#m7   D9            A9        E
Para sempre, Tua luz eu sei que brilhará
          F#m7   D9  A9            E
Infindável, Tua glória permanecerá
   A9           D9     E           F#m7
E o meu coração, quer Te dar louvor,
   D9          E         D9    E
O meu coração, quer Te dar louvor,

Solo: D  A  F#m  E  D  F#m  E  Bm


E|-------------------------------------9--9--9--9--9--9----10-10-10--12-12-12--|
B|--7-7-7-7-7-7--/10--10--10--\5-5-5---10-10-10-10-10-10---10-10-10--10-10-10--|
G|-----------------------------------------------------------------------------|
D|-----------------------------------------------------------------------------|
A|-----------------------------------------------------------------------------|
E|-----------------------------------------------------------------------------|



E|-----------------------------------------------------------------------------|
B|--10-9\7--7-9-----10-7-9--7-9------------------------------------------------|
G|--------------9---------------6-7-6------------------------------------------|
D|------------------------------------9-9--7-6--~~~~---------------------------|
A|-----------------------------------------------------------------------------|
E|-----------------------------------------------------------------------------|



E|--/9--9--9----7-5-----/9--9--9---/9--9--9---/9--9--9------7-5----------------|
B|--/10-10-10---9-7-----/10-10-10--/10-10-10--/10-10-10-----9-7----------------|
G|-----------------------------------------------------------------------------|
D|-----------------------------------------------------------------------------|
A|-----------------------------------------------------------------------------|
E|-----------------------------------------------------------------------------|



E|--12-12-12--12-12-12--12-12-12---------14---14---14--------17~~~~------------|
B|--10-10-10--10-10-10--10-10-10------15---15---15--------17-------------------|
G|-----------------------------------------------------------------------------|
D|-----------------------------------------------------------------------------|
A|-----------------------------------------------------------------------------|
E|-----------------------------------------------------------------------------|
19.292 exibições

Comentários 0

Composição: Joel Houston / Versão: Cia do Louvor
Esse não é o compositor? Avise-nos.
Contribuição: eliasrodrigo Correções: Peterson.hilari »
Exibir acordes »
publicidade
fechar