Nada Sou

Ministério Ame

 Ministério Ame Compositor: Alice Passos e Elias Passos
Tom: G
		
Afinação do Instrumento em D#

*Atenção: As notas Em e D9 devem ser tocadas respectivamentes na 7ª e na 5ª casa.

Repete este solo do teclado (coloquei ele pra fazer no violão) 2x     No final do solo

D#|-------------------------------------------------------|            d#-----------|
A#|-------5----5-----5------5--7--8---8--7--8---7--7------|            A#|-------5---|
F#|----7----5------7----7-----------------------------7---|            F#----7----5-|
C#|-------------------------------------------------------|            C#-----------|
G#|-------------------------------------------------------|            G#|-----------|
D#|-------------------------------------------------------|            D#|-----------|


Intro: C9 Em  D9
C9                  Em    D9
   Como o dia sem o sol
C9                      Em   D9
   Como um pássaro sem ninho
C9                    Em   D9
   Como a noite sem luar
Am                      C9
   Como um peixe fora d'água
    D9       G9
   Assim sou eu
                    D9
Sem Tua presença em mim
      Am       C9 D9  G9
Nada sou, nada sou Senhor
                   D9
Sem o Teu fluir em mim
      Am        C9 D9
Nada sou, nada sou

Repete este solo 2x  com distorção                                No final do solo

D#|-------------------------------------------------------|        d#-----------|
A#|-------5----5-----5------5--7--8---8--7--8---7--7------|        A#|-------5---|
F#|----7----5------7----7-----------------------------7---|        F#----7----5-|
C#|-------------------------------------------------------|        C#-----------|
G#|-------------------------------------------------------|        G#|-----------|
D#|-------------------------------------------------------|        D#|-----------|


C9                  Em    D9
   Como o dia sem o sol
C9                      Em   D9
   Como um pássaro sem ninho
C9                    Em   D9
   Como a noite sem luar
Am                      C9
   Como um peixe fora d'água
    D9       G9
   Assim sou eu

* Ccoloquei dois tipos de tocar o refrão: um com o violão e o outro com guitarra (atenção: o G5 deve ser tocado com a sua nota padrão, ou seja na 3ª casa).

                           D9                            G5                     D5
 R    Sem Tua presença em mim                              Sem Tua presença em mim
 E          Am       C9 D9  G9                                   A5       C5 D5  G5
 F    Nada sou, nada sou Senhor                            Nada sou, nada sou Senhor
 R                        D9                                                   D5
 Ã    Sem o Teu fluir em mim                               Sem o Teu fluir em mim
 O          Am        C9 D9                                      A5       C5  D5
      Nada sou, nada sou                                   Nada sou, nada sou

C9                  D9  C9                    D9
   Eu preciso tanto ter Tua presença em meu viver
C9                        Em
   Pois nada pode tomar o Teu lugar
Am       G/B      C9  D9
   Sou Teu, Tu és meu


*refrão tocado na guitarra (ao tocar a nota G5, utilizar em sua 8ª, ou seja, na 10ª casa)

G5                    D5
  Sem Tua presença em mim
       A5        C5 D5  G5
  Nada sou, nada sou Senhor
                      D5
  Sem o Teu fluir em mim
       A5        C5 D5
  Nada sou, nada sou
6.802 exibições

Comentários 0

Composição: Alice Passos / Elias Passos
Esse não é o compositor? Avise-nos.
Contribuição: elias passos Correções: "(Gui)tarrista" »
Consegui tocarAinda não conseguiram tocar essa música. Seja o primeiro!
    Não consegui tocar
    Exibir acordes »
    publicidade
    fechar