Ministerio Amor e Adoração

Verbum Panis

80.904 exibições
Tom: E
Intro: C#m  B


    C#m      B      C#m        B        C#m         B        C#m
E|----------2--------------4--2--------------------2--------------------------------|
B|-------5-----4--------5--------4--------------5-----4-----5----4h5p4--------------|
G|-----6---------4---6--------------4--------6-----------4--6-----------4/6---------|
D|---6------------------------------------6-----------------6-----------------------|
A|-4--------2------4-------------------4-----------2--------4-----------------------|
E|----------------------------------------------------------------------------------|


C#m7         B/C#
Desde o princípio
      C#m7        B/C#      C#m7        B/C#
Antes mesmo que a terra começasse a existir
C#m7       B/C#        C#m7 B/C# C#m7 B/C#
O Verbo estava junto a Deus
C#m7     B/C#
Veio no mundo
      C#m7      B/C#          C#m7          B/C#
E pra não abandonar-nos nesta viagem nos deixou
C#m7       B/D#      C#m7 B/D#
Todo a si mesmo como pão

C#m7         B/D#
Verbum caro factum est
C#m7         B/D#
Verbum panis factum est
C#m7 B/D#
Verbum caro factum est
C#m7          B/D#  A7+ B4 B
Verbum panis factum est

   E   B/D#         C#m7          G#m7
E aqui partes o teu pão em meio a nós
      A7+           E/G#  F#m7          B4   B/D#
Todo aquele que comer     não terá mais fo...me
   E   B/D#      C#m7             G#m7
E aqui vive tua igreja em torno a ti
     A7+         E/G#  F#m7     B4 B
Onde se encontrará     a morada eterna

C#m7
Verbum caro factum est
C#m7/B
Verbum panis factum est
A7+
Verbum caro factum est
F#m7 G#m7
Verbum panis

C#m7         B/D#
Desde o princípio
         C#m7     B/D#       C#m7     B/D#
Quando o universo foi criado da escuridão
C#m7       B/D#        C#m7 B/D# C#m7 B/D#
O Verbo estava junto a Deus
C#m7     B/D#
Veio no mundo
     C#m7     B/D#           C#m7        B/D#
Rico em misericórdia Deus mandou o filho seu
C#m7       B/D#      C#m7 B/D#
Todo a si mesmo como pão
    Composição: Música de: Mite BalduzziChiara CasucciColaboração e revisão:
    • CIZINHO
    • marckosalexy
    • I-N-S-O
    • Gê

    Comentários 8

    • Felipe Felipe: Postado em 05/04/2015 17:14

      Ah eu não uso esse B/D#, eu simplesmente substituo por um B, normal!

    • Jorge Jorge: Postado em 11/02/2015 19:41

      Pessoal a montagem do adorde B/D# está equivocada...

    • wlborges wlborges: Postado em 06/05/2013 16:04

      eu queria o solo inicial, sera q da pra colocar? obrigado

      • isabellamacieltorres isabellamacieltorres: Postado em 29/09/2013 09:15

        E|-------------2----------------------4---2----------------2----
        B|----------5----4----------------------------4------------4----

      • isabellamacieltorres isabellamacieltorres: Postado em 29/09/2013 09:15

        G|------6-----------4-----------6---------------4---------4----
        D|----6-----------------------6----------------------------4----

      • isabellamacieltorres isabellamacieltorres: Postado em 29/09/2013 09:16

        A|--4----------------------4-------------------------------2----
        E|----------------------------------------------------------------

    • alissoncristao alissoncristao: Postado em 13/03/2012 19:14

      Pow galera dá uma moral, essa cifra tá "muito complica"

      • Alan Alan: Postado em 16/11/2014 10:20

        Bom dia a todos e todas, Queria uma ajuda para fazer a linha de baixo dessa musica. Pra mim ta um tanto complicada.. Alguém poderia dar essa

    conseguiu tocar?

    • Vitor
    • guzinho4
    • jeanzzito
    • camilomcn
    • milenaguittar
    • camilo

    covers

    Grave um vídeo tocando Verbum Panis e mande pra gente!

    Ex.: http://www.youtube.com/watch?v=0IvSvIwGdwk
    ver covers de outras músicas »
    0:00 / 0:00

    Capítulos

      1 versão de violãodificuldadeexibiçõescontribuição e correção
      1 versão de guitarradificuldadeexibiçõescontribuição e correção
      1 versão de cavacodificuldadeexibiçõescontribuição e correção
      1 versão de tecladodificuldadeexibiçõescontribuição e correção
      1 versão de Guitar Proformatodownloadscontribuição
      play/pausefechar subir/descer velocidade
      6ª corda E5ª corda A4ª corda D3ª corda G2ª corda B1ª corda E
        acordes
        publicidad
        fechar
        ok