Tom: D
		
Intro 2x: D  G  Bm  G

D           G       Bm         G
Deus, só tu és, a razão pra cantar
D          G         Bm          G
Rei das nações me chamou pra ser filho
Bm           G                 Bm    A
Transferiu a mim,              seu DNA
Em              G        Bm            A
Me  vestiu de autoridade sou herdeiro Seu

Refrão:
D                    G          A
Meu Deus, Teu nome é grande, tremendo,
    D              G            A
meu Pai te amo não sei viver sem ti.

solo: D  Bm  G  A


E|---------------------------------------|
B|---10-10-10-----10-10-10-----8-7-----7-|
G|-7----------7-7----------7-7-----9-7---|
D|---------------------------------------|
A|---------------------------------------|
E|---------------------------------------|



E|-------------------------------------------|
B|---10-10-10-----10-10-10-----8-8-8-8-12-10-|
G|-7----------7-7----------7-7---------------|
D|-------------------------------------------|
A|-------------------------------------------|
E|-------------------------------------------|


G             Em            D           A
Sou teu filho vim de dentro do teu coração
G            Em             D             A
que mistério lindo hoje eu sou tua habitação.(2x)

(Refrão)
5.736 exibições

Comentários 0

Composição: Sabe quem é o compositor? Envie pra gente. Contribuição: jeancarlosdsr95 Correções: wagner.amorimx »
Consegui tocarAinda não conseguiram tocar essa música. Seja o primeiro!
    Não consegui tocar
    Exibir acordes »
    publicidade
    fechar