Vitória No Deserto

Ministério Hebrom

Sem foto do Ministério Hebrom
A Música é bem simples, ela só muda na hora da sequência do contra-baixo. Ela começa com uma puxada caindo em B:

E|-----------3-3-3|-----5-5-5-----3-3-3|-----5-5-5-----3-3-3|-----5-5-5-----3-3-3|-----5-5-5-----3-3-3|
A|------2-2-2-----|5-5-5-----2-2-2-----|5-5-5-----2-2-2-----|5-5-5-----2-2-2-----|5-5-5-----2-2-2-----|
D|----------------|--------------------|--------------------|--------------------|--------------------|
G|----------------|--------------------|--------------------|--------------------|--------------------|

(refrão)
Então eu direi...
E|-----5-5-5-----3-3-3|-----5-5-5-----3-3-3|-----5-5-5-----3-3-3|-----5-5-5-----3-3-3|
A|5-5-5-----2-2-2-----|5-5-5-----2-2-2-----|5-5-5-----2-2-2-----|5-5-5-----2-2-2-----|
D|--------------------|--------------------|--------------------|--------------------|
G|--------------------|--------------------|--------------------|--------------------|

Por isso eu pulo...                           Por isso eu danço...
E|-----------5-5-7-5-7-5-----------3-3-5-3-5-3|-----------5-5-7-5-7-5-----------3-3-5-3-5-3|
A|5-5-7-5-7-5-----------2-2-3-2-3-2-----------|5-5-7-5-7-5-----------2-2-3-2-3-2-----------|
D|--------------------------------------------|--------------------------------------------|
G|--------------------------------------------|--------------------------------------------|
Por isso eu grito...                           Por isso eu corro...
E|-----------5-5-7-5-7-5-----------3-3-5-3-5-3|-----------5-5-7-5-7-5-----------3-3-5-3-5-3|
A|5-5-7-5-7-5-----------2-2-3-2-3-2-----------|5-5-7-5-7-5-----------2-2-3-2-3-2-----------|
D|--------------------------------------------|--------------------------------------------|
G|--------------------------------------------|--------------------------------------------|

E|5-7-------2-|5-7-------2-|5-7-------2-----5|
A|---5-7-0---2|---5-7-0---2|---5-7-0---2--3--|
D|------4-----|------4-----|------4----------|
G|------------|------------|-----------------|
5.263 exibições

Comentários 0

Consegui tocarAinda não conseguiram tocar essa música. Seja o primeiro!
    Não consegui tocar
    publicidade
    fechar