Tom: G
		
Intro:  D  D9  D  D4  D  D9  D/F#  G  G9  G  D/F#  Em  A  A4  A

                           H.A

E|------------------------------------------|
B|------------------------------------------|
G|-------7-9-9b11---11r9p7--9---------------|
D|---7-9------------------------------------|
A|-9----------------------------------------|
E|------------------------------------------|



E|------------------------------------------|
B|---------7/8--7---------------------------|
G|-7-9-11------------9----------------------|
D|------------------------------------------|
A|------------------------------------------|
E|------------------------------------------|

                 T   T   T

E|------------------------------------------|
B|------10----------------------------------|
G|-7--9----9b11--16--17--19-11r9------------|
D|------------------------------------------|
A|------------------------------------------|
E|------------------------------------------|



E|------------------------------------------|
B|-15-17--17b19-20--17b19--17---------------|
G|------------------------------------------|
D|------------------------------------------|
A|------------------------------------------|
E|------------------------------------------|



E|-------17---------------------------------|
B|-15-17----17b19-19-19r17p15---------------|
G|----------------------------16------------|
D|------------------------------------------|
A|------------------------------------------|
E|------------------------------------------|



E|------------------------------------------|
B|-15-17--17b19-20--17b19--17----15-15/17---|
G|------------------------------------------|
D|------------------------------------------|
A|------------------------------------------|
E|------------------------------------------|


             G
O que posso ver,
    A           D D4 D D9
Senão um vale de ossos secos


                E|------------------------------------------|
                B|------------------------------------------|
OBS:na segunda  G|-------7-9/11-7h9-7~----------------------|
parte da musica D|---7-9---------------7h9~-----------------|
tem esse solo   A|------------------------------------------|
                E|------------------------------------------|



              G
O que posso dizer,
    A          D D4 D D9
Se já se foi a esperança?

         Bm             G
Nossa vergonha, está exposta,
	  D              A
Debaixo do sol, Há muito tempo.
            Bm	          G     	        D     A
Se foi a Alegria, não há Espírito, não há Palavra

          Em    	         G
Filho do Homem, mude a história,
          D
Com tua boca...
      A
Profetiza!!!
          Em  	      C9	    Bm         A
Volte Alegria, Venha o Espírito, Haja Palavra!!!

         D
Ressuscita...
D                        G
Oh terra que estava morta
	    D       Em
Oh Vale de ossos secos...


Em            A     A
Volta a respirar
	  D
Posso ouvir,
D                  G
O som do avivamento
	   D       Em
A Morte tornando vida
A
Ressuscita!

Modulação: Am

E|------------------------------------------|
B|------------------------------------------|
G|------------------------------------------|
D|-------2----------------------------------|
A|---4r5---5/4/5/4--------------------------|
E|-----------------6-5----------------------|



Dm
Vida...
                      C     A#
Eu profetizo sobre ti a vida
                 A  G     A#
Receba sobre ti  a vida
 C       D      D
Vida de Deus!

Dm
Vida...
                      C     A#
Eu profetizo sobre ti a vida
                 A  G     A#
Receba sobre ti  a vida
 C       D      D
Vida de Deus!

         D
Ressuscita...
D                        G
Oh terra que estava morta
	    D       Em
Oh Vale de ossos secos...
Em            A     A
Volta a respirar
	  D
Posso ouvir,
D                  G
O som do avivamento
	   D       Em
A Morte tornando vida
A
Ressuscita!
Texto Colunas
Alterar tom ½ tom ½ tom
afinação acordes na letra esconder tabs mais »

Comentários (17)

  • Gabriel Gabriel: Postado em 20/10/2013 14:06

    é muito facil

  • vitormucillo vitormucillo: Postado em 10/08/2013 16:19

    mandei uma correção desse solo, veremos se eles atualizarao

  • pipoca pipoca: Postado em 02/12/2012 13:33

    muito

  • efraimfc efraimfc: Postado em 19/11/2012 18:59

    genteeeee, a parte da modulaçao nao é Dm e sim "Am"!!

  • ismaelibmh ismaelibmh: Postado em 19/08/2012 13:25

    façam igual a musica "POSSO OUVIR O SOM DO AVIVAMENTO" e aprendam que um dia pode ser vc sendo criticado

  • ismaelibmh ismaelibmh: Postado em 19/08/2012 13:24

    Mano v6 fikam criticando ai a cifra que colokaram. pq então nao pegam de ouvido ao inves de fika falando coisas..

  • Gilbertinho Gilbertinho: Postado em 25/07/2012 16:52

    a cifra ta de boa eu acho queria o solo da modulaçao

  • matheusibc12 matheusibc12: Postado em 21/07/2012 16:04

    Tá quase certo ..

  • ojuninhooo ojuninhooo: Postado em 31/05/2012 11:44

    KKKK ta mal bagunça essa cifra!

  • fer_guitar7 fer_guitar7: Postado em 02/12/2011 14:30

    Video do Ministério de Louvor da Casa de Oração tocando Ressuscita Ao vivo na Facilpa 2011 /watch?v=jhXiXQiXh68

Exibindo 10 de 17 comentários Mostrar mais ver todos »
Composição: Sabe quem é o compositor? Envie pra gente. Contribuição: fellipeaza Correções: leoonardolucas , jeffeer e mais 28 »
  1. Tudo Que Você Quiser - Luan Santana Manteve-se 6.004 exibições
  2. Lepo Lepo - Psirico Manteve-se 4.431 exibições
  3. Mozão - Lucas Lucco Manteve-se 4.139 exibições
  4. Logo Eu - Jorge e Mateus Manteve-se 3.880 exibições
  5. Gaveta - Fernando e Sorocaba Manteve-se 3.331 exibições
  6. Pra Você - Onze:20 Manteve-se 3.309 exibições
  7. Só Os Loucos Sabem - Charlie Brown Jr. Manteve-se 3.010 exibições
  8. Tempo Perdido - Legião Urbana Manteve-se 2.530 exibições
  9. Fui Fiel - Gusttavo Lima Manteve-se 2.507 exibições
  10. Na Linha do Tempo - Victor e Leo Manteve-se 2.140 exibições
  1. Jorge e Mateus- Manteve-se 23.268 exibições
  2. Legião Urbana- Manteve-se 20.589 exibições
  3. Luan Santana- Manteve-se 17.386 exibições
  4. Charlie Brown Jr.- Manteve-se 17.172 exibições
  5. Fernandinho- Manteve-se 14.617 exibições
  6. Thalles Roberto- Manteve-se 11.189 exibições
  7. Católicas- Manteve-se 11.033 exibições
  8. Gusttavo Lima- Manteve-se 10.465 exibições
  9. Victor e Leo- Manteve-se 10.434 exibições
  10. Aline Barros- Manteve-se 10.076 exibições
Exibir acordes »

Cifras e tabs

Fórum Cifra Club

Aprenda

Cifra Club News

Mais Serviços Cifra Club ID

Studio Sol

©1996 - 2014 Cifra Club · o primeiro, maior e mais acessado do Brasil · 329 mil músicas · 5.9 milhões pessoas cadastradas

publicidade
fechar