Majestade Santa

Ministério Nova Geração

 Ministério Nova Geração
Tom: G
		
Em          D/F#   G
Majestade Santa
Em
Deixa o fogo descer
         D/F#
Deixa o vento soprar
          G         C
Deixa a Glória cair

Solo:

E|---------7-5h7-2---2h3-0-----|
B|2-2h3p2-2---------------2h3-2|
G|-----------------------------|
D|-----------------------------|
A|-----------------------------|
E|-----------------------------|

Padrão Guitarra em quanto:

Majestade Santa

Solo do interlúdio


E|-----------------------------7-7-7-7-7---------5-5-5-7-7-7-9-9-9-9-9H10-10-10-10-10-10-10-13-13-13-14-14-14|
B|2-2-2-2-2-2-3-3-3-3-3-5-5-5-5---------7-7-7-7-7------------------------------------------------------------|
G|-----------------------------------------------------------------------------------------------------------|
D|-----------------------------------------------------------------------------------------------------------|
A|-----------------------------------------------------------------------------------------------------------|
E|-----------------------------------------------------------------------------------------------------------|


depois

deixa o fogo descer..........


E|---------------------5-5-5-5-5-5-5-3-3-3-3-3-3-2-2-2-2-2-2-0-0-0-0-0-0-|
B|2h3-3-3-3-3-5-5-5-5-5--------------------------------------------------|
G|-----------------------------------------------------------------------|
D|-----------------------------------------------------------------------|
A|-----------------------------------------------------------------------|
E|-----------------------------------------------------------------------|


E5       D5 G5
Majestade Santa
E5
Deixa o fogo descer
         D5
Deixa o vento soprar
        G5         C5
Deixa a Glória cair

G5/A
Texto Colunas
Alterar tom ½ tom ½ tom
afinação acordes na letra esconder tabs mais »
37.671 exibições

Comentários (8)

  • Samuel Samuel: Postado em 01/04/2014 17:37

    Nossa velho, isso esta tudo errado =P

  • guitareeusinho guitareeusinho: Postado em 26/04/2013 20:07

    Estarei corrigindo

  • TEODORO TEODORO: Postado em 03/02/2013 23:24

    OH , GUERREIRO DOS CIFRACLUB COLOCA A TABLATURA AI PRA NOS....

    • guitareeusinho guitareeusinho: Postado em 26/04/2013 13:53

      Estou enviando dentro de alguns dias os solos estaram na musica

  • fellipesantos fellipesantos: Postado em 22/11/2012 10:54

    Olá tem o Solo por favor coloquem...

  • _brian_ _brian_: Postado em 16/10/2012 14:09

    Cadee o solo?
    Teem como colocar?

Composição: Sabe quem é o compositor? Envie pra gente. Contribuição: Acks Correções: guitareeusinho e mais 2 »
  1. Tudo Que Você Quiser - Luan Santana Manteve-se 6.004 exibições
  2. Lepo Lepo - Psirico Manteve-se 4.431 exibições
  3. Mozão - Lucas Lucco Manteve-se 4.139 exibições
  4. Logo Eu - Jorge e Mateus Manteve-se 3.880 exibições
  5. Gaveta - Fernando e Sorocaba Manteve-se 3.331 exibições
  6. Pra Você - Onze:20 Manteve-se 3.309 exibições
  7. Só Os Loucos Sabem - Charlie Brown Jr. Manteve-se 3.010 exibições
  8. Tempo Perdido - Legião Urbana Manteve-se 2.530 exibições
  9. Fui Fiel - Gusttavo Lima Manteve-se 2.507 exibições
  10. Na Linha do Tempo - Victor e Leo Manteve-se 2.140 exibições
  1. Jorge e Mateus- Manteve-se 23.268 exibições
  2. Legião Urbana- Manteve-se 20.589 exibições
  3. Luan Santana- Manteve-se 17.386 exibições
  4. Charlie Brown Jr.- Manteve-se 17.172 exibições
  5. Fernandinho- Manteve-se 14.617 exibições
  6. Thalles Roberto- Manteve-se 11.189 exibições
  7. Católicas- Manteve-se 11.033 exibições
  8. Gusttavo Lima- Manteve-se 10.465 exibições
  9. Victor e Leo- Manteve-se 10.434 exibições
  10. Aline Barros- Manteve-se 10.076 exibições
Exibir acordes »

Cifras e tabs

Fórum Cifra Club

Aprenda

Cifra Club News

Mais Serviços Cifra Club ID

Studio Sol

©1996 - 2014 Cifra Club · o primeiro, maior e mais acessado do Brasil · 329 mil músicas · 5.9 milhões pessoas cadastradas

publicidade
fechar