Majestade Santa

Ministério Nova Geração

 Ministério Nova Geração
Tom: D
		
Intro: Bm A/C# D  Bm A9/C# D9

Dedilhado:


E|-2h3p2------------0-2---------------------|
B|-------5-3--------------------------------|
G|-----------4------------------------------|
D|------------------------------------------|
A|------------------------------------------|
E|------------------------------------------|




E|-2h3p2------------------------------------|
B|-------5-3--------2-3---------------------|
G|-----------4------------------------------|
D|------------------------------------------|
A|------------------------------------------|
E|------------------------------------------|



Bm          A/C#  D
Majestade    Santa
Bm         A9/C#  D9
Majestade    Santa
     
       Bm
Deixa o fogo descer
       A
Deixa o vento soprar
        D            G
Deixa a Glória cair
51.975 exibições

Comentários 12

  • Thiago Thiago: Postado em 03/11/2014 11:06

    Solo simplificado!
    youtube . com/watch?v=bdZlkPLYkyM

  • emiliano emiliano: Postado em 19/05/2014 12:36

    podia fazer uma video aula dessa

  • Samuel Samuel: Postado em 01/04/2014 17:37

    Nossa velho, isso esta tudo errado =P

    • Gabriel Gabriel: Postado em 23/09/2014 16:58

      pior que ta mesmo o certo seria respectivamente SI MENOR, LÁ e RÉ e no refrao repete só que com o acrescimo do SOL no final do refrão

  • guitareeusinho guitareeusinho: Postado em 26/04/2013 20:07

    Estarei corrigindo

    • Gabriel Gabriel: Postado em 28/11/2014 16:46

      oi sera que voce podia colocar essa cifra como SI MENOR LA e RE
      essa e a certa passada pelo ministerio nova geração oficialmente e essa ai:)

  • TEODORO TEODORO: Postado em 03/02/2013 23:24

    OH , GUERREIRO DOS CIFRACLUB COLOCA A TABLATURA AI PRA NOS....

    • guitareeusinho guitareeusinho: Postado em 26/04/2013 13:53

      Estou enviando dentro de alguns dias os solos estaram na musica

  • fellipesantos fellipesantos: Postado em 22/11/2012 10:54

    Olá tem o Solo por favor coloquem...

Exibindo 10 de 12 comentários Mostrar mais ver todos »
Composição: Sabe quem é o compositor? Envie pra gente. Contribuição: Acks Correções: Guibison , Guilherme e mais 5 »
Exibir acordes »
publicidade
fechar