Tom: D
		

  Intro 2x:  D  A  Em  G
E|---12----------------------------|
B|----------15---------------------|
G|----------------14---------------|
D|---------------------------------|
A|---------------------------------|
E|---------------------------------|



E|---14----12----------------------|
B|-----------------15--------------|
G|---------------------------------|
D|---------------------------------|
A|---------------------------------|
E|---------------------------------|


D                         A                        Em      A4   A
O que quero simplesmente, é entrar em tua presença e, receber de ti
D                         A                     Em          A4     A
Posso ouvir o teu chamado e a minha resposta é sim, senhor eis me aqui
D                          A                            Em
Sei que serei transformado, Quando oh Deus tua presença Vir...

                    G                   Bm            D                 A
Vou de tudo me esquecer, Desprender de mim, por um instante olhar para ti
       G                   Bm                   D               A
E desaparecer, o mundo ao meu redor, em minha mente teu nome Jesus

    G          Bm         D         A
Aleluia,   aleluia,   aleluia a ti Senhor
    G        Bm            D          A
Hosana nas alturas sobre todos tu és Senhor.


 Teclado: Em  G  D/A  A
E|------------------------------------------------------|
B|--8-7-8-8-7-8-7---7-7---7-7---7-7---7-5---5-5---------|
G|----------------9-----9-----6-----6-----6------6-4----|
D|------------------------------------------------------|
A|------------------------------------------------------|
E|------------------------------------------------------|
13.700 exibições

Comentários 0

Composição: Sabe quem é o compositor? Envie pra gente. Contribuição: ...gabrielxd.. Correções: luluzinhaborges , ...gabrielxd.. e mais 2 »
Exibir acordes »
publicidade
fechar