Ministério Unção Ágape

Derrama tua glória

195.076 exibições
Tom: E
Base solo intro.: C#m  A  E  B  C#m  A  E  B7


E|----/7---------------------------------------------------------------------|
B|-5-------9^-9-7-5-7-/9-7---4-5-4-----------4-5-4----------------5-/7-------|
G|---------------------------------4-6---4-6-------4-----------/6------------|
D|---------------------------------------------------/6-\4-2-----------------|
A|---------------------------------------------------------------------------|
E|---------------------------------------------------------------------------|


C#m7            A
 Meu maior prazer
C#m7                B
 Estar em tua presença
C#m7               A
 Prostrado aos teus pés
       B7                      C#m
 Te adorar Jesus Senhor da minha vida.
C#m7            A
 Eu ouço a tua voz
C#m7                 B
 Eu sinto o teu mover aqui
C#m7                  F#m
 Quero mais de Ti Senhor
          B7
 Do teu poder e tua unção
      B4        B7         C#m7
 Eu ergo minhas mãos e clamo

Refrão:
C#m7          A    B
 Derrama tua gló__ria
             E   E/G#     A     E/G#
 Derrama tua shekinah Senhor
        F#m           E/G#           C#m7
 Inunda o meu ser nos rios deste amor
             A    B
 Derrama tua gló__ria
             E E/G#      A      E/G#
 Derrama tua shekinah Senhor
        F#m            G#7           C#m7
 Inunda o meu ser nos rios deste amor.

Base solo: C#m  A  E  B


E|-----------------------------------------12-11-----------------------|
B|-----7-7^--7-5-4-5-------------7-9-10-12-------12--------------------|
G|-6-8---------------/6-4---------------------------11-9-8-------------|
D|------------------------4-2------------------------------9-11--------|
A|---------------------------------------------------------------------|
E|---------------------------------------------------------------------|

Comentários 2

140 .
140 cancelar

conseguiu tocar?

  • thailana
  • Eduardo
  • GABRIEL
  • Jocimar
  • raphaela.castro.54
  • leonunes
  • geilma sousa
  • •••

covers

Grave um vídeo tocando Derrama tua glória e mande pra gente!

Ex.: http://www.youtube.com/watch?v=0IvSvIwGdwk
ver covers de outras músicas »
0:00 / 0:00

Capítulos

    play/pausefechar subir/descer velocidade
    6ª corda E5ª corda A4ª corda D3ª corda G2ª corda B1ª corda E
      acordes
      publicidad
      fechar
      ok