Tom: C
		
Intro: C9  G/B  Bb9  F/A (2x)


E|--------------------------------------------|
B|--------------------------------------------|
G|-/12-------12~-------12~--12-10-x-9-x-7-x-5-| (2x)
D|-----10-12-----10-12------------------------|
A|--------------------------------------------|
E|--------------------------------------------|


C9 	         G	            Am
  A alegria do Senhor é a nossa força
             F9                 C/E
A Ele toda honra e toda glória
                    G             Am
Todo domínio e majestade pertencem
           F9        G11 G
A Ele para sempre, amém!


           C9              G	      Am                F9
Celebre ao Rei, exalte ao Rei, move o céu com sua adoração
           C9   	   G	       Am      F9
Celebre ao Rei, exalte ao Rei, adore ao Senhor
           C9   	   G	      Am	        F9
Celebre ao Rei, exalte ao Rei, move o céu com sua adoração
           C9   	   G	       Am	 F9
Celebre ao Rei, exalte ao Rei, se necessário for, tire o pé do chão!



(C9  G/B  Bb9  F/A) (2x)


E|------------------------------------------------|
B|------------------------------------------------|
G|-9-9-9/10-10-9-7-7-7-7/9--7-7-7-7-7-7/9-7-7-5-5-| (2X)
D|-x-x-x-x--x--x-x-x-x-x-x--x-x-x-x-x-x-x-x-x-x-x-|
A|-7-7-7/8--8--7-5-5-5-5/7--5-5-5-5-5-5/7-5-5-3-3-|
E|------------------------------------------------|


C9 	         G	            Am
  A alegria do Senhor é a nossa força
             F9                 C/E
A Ele toda honra e toda glória
                    G             Am
Todo domínio e majestade pertencem
           F9        G11 G
A Ele para sempre, amém!


           C9              G	      Am                F9
Celebre ao Rei, exalte ao Rei, move o céu com sua adoração
           C9   	   G	       Am      F9
Celebre ao Rei, exalte ao Rei, adore ao Senhor
           C9   	   G	      Am	        F9
Celebre ao Rei, exalte ao Rei, move o céu com sua adoração
           C9   	   G	       Am	 F9
Celebre ao Rei, exalte ao Rei, se necessário for, tire o pé do chão!



(Am  G/B  F9  F)



E|---------------------------------|
B|---------------------------------|
G|-5-5-5-7-7-7-9-9-9-7-7-5-4-4-4---|
D|-x-x-x-x-x-x-x-x-x-x-x-x-x-x-x-3-|
A|-3-3-3/5-5-5/7-7-7/5-5-3-2-2-2-x-|
E|-------------------------------1-|



(Am  G/B  Em F9)



E|---------------------------------------------------------------|
B|---------------------------------------------------------------|
G|-5-5-5-7-7-7-9-9-9-9-12-12-12-12-12/10-10-10-10-10/9-9-9-4-4/5-|
D|-x-x-x-x-x-x-x-x-x-x-x--x--x--x--x--x--x--x--x--x--x-x-x-x-x-x-|
A|-3-3-3-5-5-5-7-7-7-7-10-10-10-10-10/8--8--8--8--8/7--7-7-2-2/3-|
E|---------------------------------------------------------------|




Final: C9  G/B  Bb9  F/A (2x)


E|--------------------------------------------|
B|--------------------------------------------|
G|-/12-------12~-------12~--12-10-x-9-x-7-x-5-| (2x)
D|-----10-12-----10-12------------------------|
A|--------------------------------------------|
E|--------------------------------------------|
29.241 exibições

Comentários 0

Composição: Sabe quem é o compositor? Envie pra gente. Contribuição: marcão Correções: matheusmorais94 e mais 2 »
Exibir acordes »
publicidade
fechar