Conto Contigo

Missionário Shalon

Sem foto do Missionário Shalon Compositor: Cristiano Pinheiro / Elkenson Costa
Tom: F
		
(intro)


E|-12h13p12-------------|-12h13p12----13/15-15~-|
B|----------13----13/15-|----------13-----------|  (2x)
G|-------------14-------|-----------------------|
D|----------------------|-----------------------|
A|----------------------|-----------------------|
E|----------------------|-----------------------|


F               C           Bb
Quando eu não ouvia a tua voz
              F           C             Bb
Em meio ao deserto eu, então, me encontrar,
          Gm7                Csus
A fé me fará ir além, prosseguir.
                 Dm      C        Bb
E o teu Santo Espírito virá sobre mim
F             C       Bb
Quando minha força acabar
           F                C          Bb
E eu descobrir que por mim mesmo "não dá",
          Gm7                Csus
A fé me fará ir além, prosseguir.
                 Dm      C         Bb  C
E o teu Santo Espírito virá sobre mim!
F       C/E
Eu conto contigo
Dm       Bb         C
e não vacilo se em ti confiar!
Dm      Am7/E       Bb
E quando sou fraco,
          Csus         F
Tua força vem me sustentar!

(intro)
F               C           Bb
Quando eu não ouvia a tua voz
              F           C             Bb
Em meio ao deserto eu, então, me encontrar,
          Gm7                Csus
A fé me fará ir além, prosseguir.
                 Dm      C        Bb
E o teu Santo Espírito virá sobre mim

(solo)


E|---------------------|
B|-6-6-8-6-6-6-5h7p5---|
G|-------------------5-| (3x)
D|---------------------|
A|---------------------|
E|---------------------|


F             C       Bb
Quando minha força acabar
           F                C          Bb
E eu descobrir que por mim mesmo "não dá",
          Gm7                Csus
A fé me fará ir além, prosseguir.
                 Dm      C         Bb  C Bb C
E o teu Santo Espírito virá sobre mim!

F       C/E
Eu conto contigo
Dm       Bb         C
e não vacilo se em ti confiar!
Dm      Am7/E       Bb
E quando sou fraco,
          Csus         F
Tua força vem me sustentar!

(solo)

E|---------------------------------------------------|
B|---------------------------------------------------|
G|-9h10-9-10-9h10-9-10-9h10-9-10-5/7-5-3-2-3-5-------|
D|---------------------------------------------------|
A|---------------------------------------------------|
E|---------------------------------------------------|



E|---------------------------------------------------|
B|------------------------------13/15-13p11-13-------|
G|-9h10-9-10-9h10-9-10-9h10-9-10---------------------|
D|---------------------------------------------------|
A|---------------------------------------------------|
E|---------------------------------------------------|



E|------------------|
B|-11h13-11---------|
G|---------14-12----|
D|--------------15--|
A|------------------|
E|------------------|



E|---------------------------------13-15-16b17-16b17-|
B|-------------------------13-15-17------------------|
G|-----------------14-15-17--------------------------|
D|---------14-15-17----------------------------------|
A|-13-15-17------------------------------------------|
E|---------------------------------------------------|


F       C/E
Eu conto contigo
Dm       Bb         C
e não vacilo se em ti confiar!
Dm      Am7/E       Bb
E quando sou fraco,
          Csus         F
Tua força vem me sustentar!
2.296 exibições

Comentários 0

Composição: Sabe quem é o compositor? Envie pra gente. Contribuição: obama Correções: gotze »
Exibir acordes »
publicidade
fechar