Tom: G#
		
intro/verse

|-----------------|
|-----------------|
|-----------------|
|-5---8-----------|
|-3---6--6--3-----|
|--------4--1-----|

1st guitar
(strumming pattern not figured out)



|----------------3-4-3-1--3-4-3-1--|
|---4-----4------------------------|
|--3-3---3-3-----------------------|
|-1-----1--------------------------|
|----------------------------------|
|----------------------------------|



|----------------3-4-3-1--3-4-3-1--|
|---4-----4------------------------|
|--3-3---3-3-----------------------|
|-1-----1--------------------------|
|----------------------------------|
|----------------------------------|

2nd  guitar

Comentários 0

Composição: Gigi D'Alessio / Ida Emerson / Mohr
Esse não é o compositor? Avise-nos.
Consegui tocarAinda não conseguiram tocar essa música. Seja o primeiro!
    Não consegui tocar
    Exibir acordes »
    publicidade
    fechar