Broken Dream

Motion City Soundtrack

 Motion City Soundtrack
Tom: F#
		

Album: Broken Heart E.P.
Transcribed by: Caleb B.
Email: *

:D


-----------------------------------------------------------------------------|
-----------------------------------------------------------------------------|
-----------------------------------------------------------------------------|
-----------------------------------------------------------------------------|
-9-9-9-9-9-9-9-9-8-8-8-8-8-8-8-8-6-6-6-6-6-6-6-6-4-4-4-4-4-4-4-4-14-14-14-14-|
-----------------------------------------------------------------------------|

  NOTE:::VERY IMPORTANT:::This is tuned 1/2 a step down like the real thing.


-----------------------------------------------------------------------------|
-----------------------------------------------------------------------------|
-----------------------------------------------------------------------------|
-----------------------------------------------------------------------------|
-14-14-14-14-13-13-13-13-13-13-13-13-11-11-11-11-11-11-11-11-11-11-11-11-11--|
-----------------------------------------------------------------------------|



-----------------------------------------------------------------------------|
-----------------------------------------------------------------------------|
-----------------------------------------------------------------------------|
-----------------------------------------------------------------------------|
-11-11-11--------------------------------------------------------------------|
-----------------------------------------------------------------------------|

 The rhythm is easy and I didn't feel like tabbing it. Here's the chords:


-----------------------------------------------------------------------------|
-----------------------------------------------------------------------------|
--8---3---10-----------------------------------------------------------------|
--9---4---11-----------------------------------------------------------------|
--9---4---11-----------------------------------------------------------------|
--7---2---9------------------------------------------------------------------|

  Post chorus:


-----------------------------------------------------------------------------|
-----------------------------------------------------------------------------|
-----------------------------------------------------------------------------|
--13---11--9--4--2--9--------------------------------------------------------|
--13---11--9--4--2--9--------------------------------------------------------|
--11---9---7--2--0--7--------------------------------------------------------|

  Fill:


-----------------------------------------------------------------------------|
-----------------------------------------------------------------------------|
-------6------8-------11-------15-13-11-10-11-----11-11----11-11p10-10-------|
-----------------------------------------------------------------------------|
---9-----9-8-----8-6-----6-4-------------------    14-------13------------11-|
-----------------------------------------------------------------------------|




-----------------------------------------------------------------------------|
-----------------------------------------------------------------------------|
-----------------------------------------------------------------------------|
-----------------------------------------------------------------------------|
--9-9-9-9-9-9-9-9-8-8-8-8-8-8-8-8-6-6-6-6-6-6-6-6-4-4-4-4-4-4-4-4-14-14-14---|
-----------------------------------------------------------------------------|




-----------------------------------------------------------------------------|
-----------------------------------------------------------------------------|
-----------------------------------------------------------------------------|
-----------------------------------------------------------------------------|
-14-14-14-14-14-13-13-13-13-13-13-13-13-11-11-11-11-11-11-11-11-11-11-11-11--|
-----------------------------------------------------------------------------|



-----------------------------------------------------------------------------|
-----------------------------------------------------------------------------|
-----------------------------------------------------------------------------|
-----------------------------------------------------------------------------|
-11-11-11-11---9-9-9-9-9-9-9-9-8-8-8-8-8-8-8-8-6-6-6-6-6-6-6-6-4-4-4-4-4-4-4-|
-----------------------------------------------------------------------------|



-----------------------------------------------------------------------------|
-----------------------------------------------------------------------------|
-----------------------------------------------------------------------------|
-----------------------------------------------------------------------------|
-4-14-14-14-14-14-14-14-14-13-13-13-13-13-13-13-13-11-11-11-11-11-11-11-11---|
-----------------------------------------------------------------------------|




-----------------------------------------------------------------------------|
-----------------------------------------------------------------------------|
-----------------------------------------------------------------------------|
-----------------------------------------------------------------------------|
-11-11-11-11-11-11-11-11-----------------------------------------------------|
-----------------------------------------------------------------------------|



-----------------------------------------------------------------------------|
-----------------------------------------------------------------------------|
-----------------------------------------------------------------------------|
--9--4--11----9--4--11-------------------------------------------------------|
--9--4--11----9--4--11-------------------------------------------------------|
--7--2--9-----7--2--9--------------------------------------------------------|



-----------------------------------------------------------------------------|
-----------------------------------------------------------------------------|
-----------------------------------------------------------------------------|
--13--11--9--4--2--9---------------------------------------------------------|
--13--11--9--4--2--9---------------------------------------------------------|
--11--9---7--2--0--7---------------------------------------------------------|




-----------------------------------------------------------------------------|
----------------7h9h11p9p7-------------------------------7h9h11p9p7----------|
--9---8----6-----------------9---8---11br-11--9--8---6-----------------------|
-----------------------------------------------------------------------------|
-----------------------------------------------------------------------------|
-----------------------------------------------------------------------------|




-----------------------------------------------------------------------------|
-----------------------------------------------------------------------------|
--9----8----11b--------------------------------------------------------------|
-----------------------------------------------------------------------------|
-----------------------------------------------------------------------------|
-----------------------------------------------------------------------------|

    (bass solo)


-----------------------------------------------------------------------------|
-----------------------------------------------------------------------------|
-----------------------------------------------------------------------------|
--9--4--11---9--4--11----13--11--9--4--2--9----------------------------------|
--9--4--11---9--4--11----13--11--9--4--2--9----------------------------------|
--7--2--9----7--2--9-----11--9---7--2--0--7----------------------------------|
198 exibições

Comentários 0

Consegui tocarAinda não conseguiram tocar essa música. Seja o primeiro!
    Não consegui tocar
    Exibir acordes »
    publicidade
    fechar