The Future Freaks Me out

Motion City Soundtrack

 Motion City Soundtrack
Tom: G#
		
Intro 

e|--6---4---3---1------------------------------------------------------------| 
B|--8---4---5---3------------------------------------------------------------| 
G|--8---5---5---3------------------------------------------------------------| 
D|--8---6---5---3------------------------------------------------------------| 
A|--6---6---3---1------------------------------------------------------------| 
E|------4--------------------------------------------------------------------| 


Fill 

e|---3------3--------------------3-----3-------------------------------------| 
B|-----3-4----3-4-3-1-6-8-6-4-3----3-4---3-4-3\1-6/8-------------------------| 
G|---------------------------------------------------------------------------| 
D|---------------------------------------------------------------------------| 
A|---------------------------------------------------------------------------| 
E|---------------------------------------------------------------------------| 


Verse 

e|---------------------------------------------------------------------------| 
B|---------------------------------------------------------------------------| 
G|---------------------------------------------------------------------------| 
D|--8-(16x)--5-(12x)--3-(2x)-------------------------------------------------| 
A|--6--------3--------1------------------------------------------------------| 
E|---------------------------------------------------------------------------| 


Prechorus, verse in background 

e|---3------3--------------------3-------------3-----------------------------| 
B|-----3-4----3-4-3-1--0-0-0-------3-4-3h4p3h4---3-4-3\1---------------------| 
G|---------------------------3-3---------------------------------------------| 
D|---------------------------------------------------------------------------| 
A|---------------------------------------------------------------------------| 
E|---------------------------------------------------------------------------| 


Chorus 

e|---------------------------------------------------------------------------| 
B|---------------------------------------------------------------------------| 
G|--8-------5---3------------------------------------------------------------| 
D|--8---6---5---3------------------------------------------------------------| 
A|--6---6---3---1------------------------------------------------------------| 
E|------4--------------------------------------------------------------------| 


Bridge

e|---------------------------------------------------------------------------| 
B|--8---11-13-8----4----4-8----6---6---999-888---66---8---11-----------------| 
G|--Bet-ty-I--need-you--I-miss-you-I'm-so--alone-with-out-you----------------| 
D|---------------------------------------------------------------------------| 
A|---------------------------------------------------------------------------| 
E|---------------------------------------------------------------------------| 



e|---------------------------------------------------------------------------| 
B|-13-8----6--4--6---8----6----4----6- 999------888---66---------------------| 
G|-to-call-up-on-the-week-ends-with-my-cellular-phone-oh---------------------| 
D|---------------------------------------------------------------------------| 
A|---------------------------------------------------------------------------| 
E|---------------------------------------------------------------------------| 


"Aw *** it. I'm on fire..." 

e|---------| 
B|---------| 
G|----5-3--| 
D|--6-5-3--| 
A|--6-3-1--| 
E|--4------| 


Order: 
Intro 
Fill 
Verse 
Prechorus 
Chorus 
Verse 
Prechorus 
Chorus 
Bridge 
"Aw *** it" 
Chorus till end

Comentários 0

Composição: Gigi D'Alessio / Ida Emerson / Mohr
Esse não é o compositor? Avise-nos.
Contribuição: Isis
Consegui tocarAinda não conseguiram tocar essa música. Seja o primeiro!
    Não consegui tocar
    Exibir acordes »
    publicidade
    fechar