Munhoz & Mariano

Comendo Água

44.342 exibições
Tom: D
Bm                      G
Alô, tô num bar, chejo já
                    D            A
Tô aqui batendo um papo, comendo água
Bm                      G
Alô, tô num bar, chejo já
                   D                 A
Pode ir fazendo a cama, prá quem te ama

            Bm                  G              D         A
E|-------------------------------7-7-7-7-7-10--------------------|
B|-------------------------------8-8-8-8-8--7---2-3-5-2/0--------|
G|----2--2h4--4-2-2h4--4--2--4----------------------------2------|
D|---------------------------------------------------------------|
A|---------------------------------------------------------------|
É[---------------------------------------------------------------|


              Bm             G                  D        A
E|---------------------------------7-7-7-7-7-5-------------------------------------|
B|-3-2-0---------------------------8-8-8-8-8-7--2-3-5-2/0----3-2---3-2---3-2-------|
G|-------2--2h4--4-2-2h4--4--2--4-------------------------2------2-----2-----2-----|
D|---------------------------------------------------------------------------------|
A|---------------------------------------------------------------------------------|
E|---------------------------------------------------------------------------------|


Bm                     A     A    A    A
Hoje convidei alguns amigos prá beber
Bm                         A
mais daqui a pouco só vai dar eu e você
     G                       Em
não fique preocupada, nem grilada
                  Bm
porque não vou demorar......

E|----10----12-----14--12--10-10----|
B|----------------------------------|
G|-11----12----14--14--12--11-11----|
D|----------------------------------|
A|----------------------------------|
E|----------------------------------|


    G                      Em
eu não vou te deixar abandonada
                    F#
vale a pena me esperar
       F#   F#   F#
prá gente se amar

E|-----------|
B|-3-2-0-----|
G|-------2-4-|
D|-----------|
A|-----------|
E|-----------|


 Bm                    G
Alô, tô num bar, chejo já
                    D            A
Tô aqui batendo um papo, comendo água
Bm                      G
Alô, tô num bar, chejo já
                   D                 A
Pode ir fazendo a cama, prá quem te ama

                C              D
Daqui a pouco amor, volto prá casa
                  C            D
Prá gente dá um show, de madrugada
              C              D
Vamos fazer amor, beijar na boca
                      C                   F#  F#  F#
Vou ti dar o meu calor eu vou te deixar louca

E|-----------|
B|-3-2-0-----|
G|-------2-4-|
D|-----------|
A|-----------|
E|-----------|


 Bm                    G
Alô, tô num bar, chejo já
                    D            A
Tô aqui batendo um papo, comendo água

E|---------------------------|
B|-3-2-0-2-3-2-0-2-3-2-0-----|
G|-----------------------2-4-|
D|---------------------------|
A|---------------------------|
E|---------------------------|


Bm                      G
Alô, tô num bar, chejo já

                   D                 A
Pode ir fazendo a cama, prá quem te ama

E|-------10-|  E|-9--7--5--|
B|----------|  B|----------|
G|-9h11--11-|  G|-9--7--6--|
D|----------|  D|----------|
A|----------|  A|----------|
E|----------|  E|----------|


Solo:

         Bm                  G              D         A
E|-------------------------------7-7-7-7-7-10--------------------|
B|-------------------------------8-8-8-8-8--7---2-3-5-2/0--------|
G|----2--2h4--4-2-2h4--4--2--4----------------------------2------|
D|---------------------------------------------------------------|
A|---------------------------------------------------------------|
É[---------------------------------------------------------------|


              Bm             G                  D        A
E|---------------------------------7-7-7-7-7-5-------------------------------------|
B|-3-2-0---------------------------8-8-8-8-8-7--2-3-5-2/0----3-2---3-2---3-2-------|
G|-------2--2h4--4-2-2h4--4--2--4-------------------------2------2-----2-----2-----|
D|---------------------------------------------------------------------------------|
A|---------------------------------------------------------------------------------|
E|---------------------------------------------------------------------------------|


Bm                     A     A    A    A
Hoje convidei alguns amigos prá beber
Bm                         A
mais daqui a pouco só vai dar eu e você
     G                       Em
não fique preocupada, nem grilada
                  Bm
porque não vou demorar......

    G                      Em
eu não vou te deixar abandonada
                    F#
vale a pena me esperar
     F#   F#   F#
prá gente se amar

                C              D
Daqui a pouco amor, volto prá casa
                  C            D
Prá gente dá um show, de madrugada
              C              D
Vamos fazer amor, beijar na boca
                      C                   F#  F#  F#
Vou ti dar o meu calor eu vou te deixar louca

E|-----------|
B|-3-2-0-----|
G|-------2-4-|
D|-----------|
A|-----------|
E|-----------|


 Bm                    G
Alô, tô num bar, chejo já
                    D            A
Tô aqui batendo um papo, comendo água
Bm                      G
Alô, tô num bar, chejo já
                   D                 A
Pode ir fazendo a cama, prá quem te ama

 Bm    Bm  A  Bm
Alô... Tô num bar.

Comentários 0

140 .
140 cancelar

conseguiu tocar?

  • lenardo.souza.75
  • Gabriela
  • mayconzanatta
  • vaccaro3

covers

Grave um vídeo tocando Comendo Água e mande pra gente!

Ex.: http://www.youtube.com/watch?v=0IvSvIwGdwk
ver covers de outras músicas »
0:00 / 0:00

Capítulos

    1 versão de violão dificuldade exibições contribuição e correção
    1 versão de guitarra dificuldade exibições contribuição e correção
    1 versão de cavaco dificuldade exibições contribuição e correção
    1 versão de teclado dificuldade exibições contribuição e correção
    play/pausefechar subir/descer velocidade
    6ª corda E5ª corda A4ª corda D3ª corda G2ª corda B1ª corda E
      acordes
      publicidad
      fechar
      ok