Eu Adoro Amar Você

Munhoz & Mariano

 Munhoz & Mariano Compositor: Munhoz / Mariano
Tom: G
		

Intro: G  D  Em  C
E|--------------------------8-7----7h8-----------7-8-7h8-5-----|
B|------8-10-8-7-7h8-------8----10--------7-8-10-----------7---|
G|--6/7----------------6/7--------------9----------------------|
D|-------------------------------------------------------------|
A|-------------------------------------------------------------|
E|-------------------------------------------------------------|


Refrão:
 G
Explodiu, Balançou
 D
Não deu pra segurar
 Em			   C
Coração disparou foi só ti ver chegar
 G
Explodiu, Balançou
 D
Fez meu corpo tremer
 C       Am    G
Eu adoro amar você

E|--9h10--10--|
B|------------|
G|--10h11-11--|
D|------------|
A|------------|
E|------------|


 G
Será que você ta se apaixonando

Ou será que ta me enganando
 Am       C
Não sei, não sei
 G
Mais o jeito que você me olha

Ta na cara que ta dando bola
 Am       C
Pra mim, ta sim

E|-7h8-7-5-7-9h10--|
B|-----------------|
G|-----------------|
D|-----------------|
A|-----------------|
E|-----------------|


 C                               Am
Não adianta mais você tentar se esconder
        D          G
Da pra ver no seu olhar
 C                       Am
Sei que você ta querendo e eu também
                      D      G
E eu também to louco pra ti amar

Refrão:
 G
Explodiu, Balançou
 D
Não deu pra segurar
 Em			   C
Coração disparou foi só ti ver chegar
 G
Explodiu, Balançou
 D
Fez meu corpo tremer
 C       Am    G
Eu adoro amar você

E|---------------------------8-7----7h8--------------------------------------|
B|------8-10-8-7-7h8-------8-----10-----7/8-8-8-10-12-10-8--8-8-8-8-7-8-10---|
G|--6/7----------------6/7---------------------------------------------------|
D|--------------------------------------8/9-9-9-10-12-10-9--9-9-9-9-8-9-10---|
A|---------------------------------------------------------------------------|
E|---------------------------------------------------------------------------|



E|--------------------------8-7----7h8-----------7-8-7h8-5-----|
B|------8-10-8-7-7h8-------8----10--------7-8-10-----------7---|
G|--6/7----------------6/7--------------9----------------------|
D|-------------------------------------------------------------|
A|-------------------------------------------------------------|
E|-------------------------------------------------------------|


 G
Será que você ta se apaixonando

Ou será que ta me enganando
 Am       C
Não sei, não sei
 G
Mais o jeito que você me olha

Ta na cara que ta dando bola
 Am       C
Pra mim, ta sim

E|-7h8-7-5-7-9h10--|
B|-----------------|
G|-----------------|
D|-----------------|
A|-----------------|
E|-----------------|


C                               Am
Não adianta mais você tentar se esconder
        D          G
Da pra ver no seu olhar
 C                       Am
Sei que você ta querendo e eu também
                      D      G
E eu também to louco pra ti amar

Refrão 2x:
 G
Explodiu, Balançou
 D
Não deu pra segurar
 Em			   C
Coração disparou foi só ti ver chegar
 G
Explodiu, Balançou
 D
Fez meu corpo tremer
 C       Am    G
Eu adoro amar você

 C       Am    G
Eu adoro amar você

E|---------------------------8-7----7h8--------------------------------------|
B|------8-10-8-7-7h8-------8-----10-----7/8-8-8-10-12-10-8--8-8-8-8-7-8-10---|
G|--6/7----------------6/7---------------------------------------------------|
D|--------------------------------------8/9-9-9-10-12-10-9--9-9-9-9-8-9-10---|
A|---------------------------------------------------------------------------|
E|---------------------------------------------------------------------------|



E|--------------------------8-7----7h8-----------7-8-7h8-5-----|
B|------8-10-8-7-7h8-------8----10--------7-8-10-----------7---|
G|--6/7----------------6/7--------------9----------------------|
D|-------------------------------------------------------------|
A|-------------------------------------------------------------|
E|-------------------------------------------------------------|


C         Am   G
Eu adoro amar você
12.781 exibições

Comentários 0

Consegui tocarAinda não conseguiram tocar essa música. Seja o primeiro!
    Não consegui tocar
    Exibir acordes »
    publicidade
    fechar