Pantera Cor De Rosa

Munhoz & Mariano

 Munhoz & Mariano
Tom: A
		
Intro:


E|------------------------------|
B|------------------------------|
G|------------------------------|
D|------------------------------|
A|-5s7-8s9----9s8-7s5--5s7-8s9--|
E|-5s7-8s9----9s8-7s5--5s7-8s9--|


F#m                 D
Toda produzida, jeitinho de santinha
  A                     E
Ela saiu de casa doida pra perder a linha
   F#m                   D
Me chama pra dançar, eu não to aguentando
  A                  E
Ela ta provocando o Munhoz e Mariano

Bm                       E
Sabe se vestir do jeito que o homem gosta
Bm                         E              E7 Eb7 D7 C#7
Vestido apertadinho da Pantera cor de rosa

Pra quê?

          F#m                                   D7
Padá, padá... Padá... Padá, padá, padá, padá, padá...

Pra dar o que falar!
          F#m                                    
Padá, padá... Padá... Padá, padá, padá, padá, padá...


Solo:  F#m  D7  F#m  


E|--------------------------------------------|
B|--------------------------------------------|
G|---------------------7h6-----6h5------------|
D|---------6p7-----6p7-----6p7-----9-7--------|
A|-5p7-8p9-----8p9---------------------9-7-9--|
E|--------------------------------------------|



E|--------------------------------------------|
B|--------------------------------------------|
G|---------------------7h6--6s11-10-----------|
D|---------6p7-----6p7------------------------|
A|-5p7-8p9-----8p9----------------------------|
E|--------------------------------------------|


(Repete tudo)

(Refrão)  (2x)

F#m
Não importa se é preto, branco, verde ou cor de rosa

                                                 D7
Se for apertadinho pode por que o pai gosta!


E|--------------------------------------------|
B|--------------------------------------------|
G|-9-7----------------------------------------|
D|-----9-7----7-9b10-9b10-9b10-9b10-7---------|
A|---------9--------------------------9-7-9-9-|
E|--------------------------------------------|


(Refrão)  (2x)
90.586 exibições

Comentários 13

  • Gilson Gilson: Postado em 30/10/2013 14:21

    olha só gente....naum é nada de G e nem G7...o acorde que vcs naum sabem é o Dº

  • andres.jesse andres.jesse: Postado em 21/08/2013 13:18

    na segunda frase do refrão cai pra Fm no lugar de G. Solo:

    D|0h2-3s4---------------------9p8------11p10
    G|0h2-3s4-6s7-6s7-9s10-----9s10

  • luan.hetkowski luan.hetkowski: Postado em 18/08/2013 15:49

    qual é o ritmo???????

    • Lucas.FL190 Lucas.FL190: Postado em 03/09/2013 21:50

      ↓ ↓x ↑ ↓ ↑

    • Iago Iago: Postado em 10/06/2014 09:21

      O ritmo é só você fazer um arrocha ↓↓↑ ↓↑↓↑ primeira batida para baixo bate só o baixo do acorde

  • leovillela22 leovillela22: Postado em 15/08/2013 13:34

    Fica melhor trocando o G por Em

  • leovillela22 leovillela22: Postado em 15/08/2013 13:24

    esse G fica melhor um Em, hein

  • luan.hetkowski luan.hetkowski: Postado em 12/08/2013 18:25

    façam a video aula por favor!!!!

  • mialmeida mialmeida: Postado em 10/08/2013 21:08

    parece meio q um arrocha

  • Karina Karina: Postado em 07/08/2013 22:12

    Esse G fico muito esquisito na musica :P

    • Dionys Dionys: Postado em 14/08/2013 16:24

      axei a mema coisa...

    • Jean Jean: Postado em 23/08/2013 02:53

      é G7.

Exibindo 12 de 13 comentários Mostrar mais ver todos »
Composição: Sabe quem é o compositor? Envie pra gente. Contribuição: bryanvoltani Correções: deuloudi , Jeaan e mais 4 »
Exibir acordes »
publicidade
fechar