Te Quero Bem

Munhoz & Mariano

 Munhoz & Mariano
Tom: A#(acordes na forma do tom G)
Capotraste na 3ª casa		
G            D/F#               Em            C
Eu já falei e não vou repetir te quero bem, bem longe de mim.
G            D/F#               Em               C
Vacilou marcou bobeira e agora fica ai com cara de segunda-feira!


Intro: G  D/F#  Em  C
E|------------------------------------------
B|-3-3-3-3-3-3-3-3--3-3-3-3-----------------
G|-0-0-0-0-2-2-2-2--0-0-0-0---5-4-2---------
D|-----------------------------------5-2-5--
A|------------------------------------------
E|------------------------------------------


G            Em
Nunca passei tanto sufoco
C                  D/F#
Se gosta de brincar vai brincar com outro.
G            Em
Desfez de mim o tempo todo,
C                  D/F#
Agora se ferrou eu consegui virar o jogo!

Em            C             Am
Eu quero distância de você,
D/F#                         G
Juro nunca mais quero te ver!

G            D/F#               Em            C
Eu já falei e não vou repetir te quero bem, bem longe de mim.
G            D/F#               Em               C
Vacilou marcou bobeira e agora fica ai com cara de segunda-feira!  (2x)
E|------------------------------------------
B|-3-3-3-3-3-3-3-3--3-3-3-3-----------------
G|-0-0-0-0-2-2-2-2--0-0-0-0---5-4-2---------  (2x)
D|-----------------------------------5-2-5--
A|------------------------------------------
E|------------------------------------------

G            Em
Nunca passei tanto sufoco
C                  D/F#
Se gosta de brincar vai brincar com outro.
G            Em
Desfez de mim o tempo todo,
C                  D/F#
Agora se ferrou eu consegui virar o jogo!

Em            C             Am
Eu quero distância de você,
D/F#                         G
Juro nunca mais quero te ver!

G            D/F#               Em            C
Eu já falei e não vou repetir te quero bem, bem longe de mim.
G            D/F#               Em               C
Vacilou marcou bobeira e agora fica ai com cara de segunda-feira!  (3x)
E|------------------------------------------
B|-3-3-3-3-3-3-3-3--3-3-3-3-----------------
G|-0-0-0-0-2-2-2-2--0-0-0-0---5-4-2---------
D|-----------------------------------5-2-5--
A|------------------------------------------
E|------------------------------------------
59.860 exibições

Comentários 0

Composição: Marco Aúrelio/Thiago Machado
Esse não é o compositor? Avise-nos.
Contribuição: guma Correções: leomonaco e mais 2 »
Exibir acordes »
publicidade
fechar