Knights Of Cydonia

Muse

 Muse
Tom: D
		
(intro)


E|-------------------------||
B|-------------------------||
G|-------------------------||
D|-------------------------|| (2x)
A|-------------------------||
E|-0----2--3----5--5--7----||


(use sempre a peladeira nas partes trêmulas)

E|--------------------------------------|
B|--------------------------------------|
G|--------------------------------------|
D|--------------------------------------|
A|-7--9--10----12--10--9--10--9--7--6---|
E|--------------------------------------|


(slide trêmulo sem pedaleira)

E|------------------|
B|------------------|
G|------------------|
D|------------------|
A|------------------|
E|-19-------------0-|


E|-0----|
B|-0----|
G|-0----|
D|-2----|
A|-2----|
E|-0----|


E|---------------------------------------|--------------------------------------|
B|---------------------------------------|--------------------------------------|
G|---------------------------------------|--------------------------------------|
D|-5---4--2--0-----2--4--5----4--2--0----|-1----2--4--2---5--7--8----7--8--9----|
A|---------------------------------------|--------------------------------------|
E|---------------------------------------|--------------------------------------|



E|----------------|----------------|----------------|----------------------|
B|----------------|----------------|----------------|----------------------|
G|-8---5--0--7----|-8---7--5--3----|-7---5--3--5----|-3--1--3----4----5----|
D|----------------|----------------|----------------|----------------------|
A|----------------|----------------|----------------|----------------------|
E|----------------|----------------|----------------|----------------------|


(tudo trêmulo com pedaleira)

E|-11---10--8--6---|-8--10--11---10--8--6----|-7---8--10--8--|-11--13--14---13--14--15----|
B|-----------------|-------------------------|---------------|----------------------------|
G|-----------------|-------------------------|---------------|----------------------------|
D|-----------------|-------------------------|---------------|----------------------------|
A|-----------------|-------------------------|---------------|----------------------------|
E|-----------------|-------------------------|---------------|----------------------------|



E|-19--16-----18---|-19--18-16-14---|--18--16-14-16--|-14-12-14---15---16----|
B|---------16------|----------------|----------------|-----------------------|
G|-----------------|----------------|----------------|-----------------------|
D|-----------------|----------------|----------------|-----------------------|
A|-----------------|----------------|----------------|-----------------------|
E|-----------------|----------------|----------------|-----------------------|


(escute a música para saber como é essa parte)

G|--------------------------|--------------------------|
D|--------------------------|--------------------------|
A|-----2--7--2--6--7-----2--|-----2--3-----2--3-----2--|
E|--4-----------------3-----|--0--------3--------3-----|


E|--0--|
B|--0--|
G|--0--|
D|--2--|
A|--2--|
E|--0--|

(intro)

(synth arr. for guitar)

"No one´s going to take me alive"


    Em
E|-----------------------0--|
B|-----------------0---0----|
G|-----------0---0---0------|
D|-----2---2---2------------| (2x)
A|---2---2------------------|
E|-0------------------------|



    Bm
E|----------------------2--|
B|----------------3---3----|
G|----------4---4---4------|
D|----4---4---4------------| (2x)
A|--2---2------------------|
E|-------------------------|


"The time has come to make things right"


    A
E|-------------------0-|
B|-------------0---0---|
G|------2----2---2-----|
D|----2----2-----------| (2x)
A|--0------------------|
E|---------------------|



    Em
E|-----------------------0--|
B|-----------------0---0----|
G|-----------0---0---0------|
D|-----2---2---2------------| (2x)
A|---2---2------------------|
E|-0------------------------|


"You and I must fight for our right"


    Em
E|-----------------------0--|
B|-----------------0---0----|
G|-----------0---0---0------|
D|-----2---2---2------------| (2x)
A|---2---2------------------|
E|-0------------------------|



    Bm
E|----------------------2--|
B|----------------3---3----|
G|----------4---4---4------|
D|----4---4---4------------| (2x)
A|--2---2------------------|
E|-------------------------|


"You and I must fight to survive"


    A
E|-------------------0-|
B|-------------0---0---|
G|------2----2---2-----|
D|----2----2-----------| (2x)
A|--0------------------|
E|---------------------|



    Em
E|-----------------------0--|
B|-----------------0---0----|
G|-----------0---0---0------|
D|-----2---2---2------------| (2x)
A|---2---2------------------|
E|-0------------------------|


(riff)

E|-----------------------------------------------|
B|-----------------------------------------------|
G|-----------------------------------------------|
D|----------------------------------------5------|
A|-5h7-7-7-7--5h7-7-7-7--5h7-7-7-7--5-7-5---5-7--|
E|-----------------------------------------------|



E|-----------------------------------------------|
B|-----------------------------------------------|
G|-----------------------------------------------|
D|-----------------------------------------------|
A|-5----------5----------5----------5-----5h7-7--|
E|---7-7-7-7----7-7-7-7----7-7-7-7----7-7--------|



E|-----------------------------------------------|
B|-----------------------------------------------|
G|-----------------------------------------------|
D|-----------------------------------------------|
A|-7p0-0-0-0--7p0-0-0-0--7p0-0-0-0--7p0-0--------|
E|----------------------------------------7-5-3--|



E|---------------------------------------------|
B|---------------------------------------------|
G|---------------------------------------------|
D|---------------------------------------------|
A|---------------------------------------------|
E|-3p0-0-0-0--3p0-0-0-0--3p0-0-0-0--3p0-0-0-0--|


(solo final)

E|-12----------------10--------9----7--5h7p5----3--------|
B|-------12----------------------------------------------|
G|-------------12----------------------------------------|
D|-------------------------------------------------------| (2x)
A|-------------------------------------------------------|
E|-------------------------------------------------------|

(toda parte final trêmula)

(riff final)

E|---------------------------------------------|
B|---------------------------------------------|
G|---------------------------------------------|
D|---------------------------------------------|
A|---------------------------------------------|
E|-3p0-0-0-0--3p0-0-0-0--3p0-0-0-0--3p0-3-5-7--|



E|----------------------------------------------|
B|----------------------------------------------|
G|----------------------------------------------|
D|----------------------------------------------|
A|---------------------------------5h7-7-5h7-7--|
E|-3p0-0-0-0--3p0-0-0-0--3p0-0-0-0--------------|
Texto Colunas
Alterar tom ½ tom ½ tom
afinação acordes na letra esconder tabs mais »

Comentários (29)

  • Estevão Estevão: Postado em 02/01/2014 22:19

    Podia ser melhor escrita, não tá levando em consideração técnica de digitação. Não precisa ficar correndo na mesma corda.

  • Estevão Estevão: Postado em 02/01/2014 20:50

    Essa tablatura não tá muito boa. Pra que ficar correndo na mesma corda pra achar as notas? Está sem técnica de digitação.

  • lucaspa lucaspa: Postado em 01/11/2013 09:43

    Gh feelings total tocando esse riff fudelastico do final!!

  • leonnardo.mileodarocha leonnardo.mileodarocha: Postado em 15/09/2013 13:41

    Tem partes que não existem na musica original .-.

  • Patric Patric: Postado em 23/04/2013 12:15

    Alguém pode me explicar o como que faz "5h7" e "3p0" não sei se estou fazendo correto

    • felipe felipe: Postado em 15/05/2013 18:21

      eai kara vou te explicar o 5h7 e o hamerom vc coloca o dedo na casa 5 e bate com outro na casa setee o 3p0 vc coloca o dedo na casa 3 e puxa

    • alexmb alexmb: Postado em 31/05/2013 16:47

      o ''h'' entre as casas é um hammer on, nele você toca a corda na 5ª casa e bate e segura com outro dedo na 7ª casa

    • alexmb alexmb: Postado em 31/05/2013 16:49

      Já o 3p0 é um pull off, você toca a corda na 3ª casa e tira o dedo da corda, deixando ela solta.

  • xperia xperia: Postado em 27/12/2012 22:08

    Fácil,é so treinar e saber bem a usica q é fácil,se vc so ouve ela no guitar hero, toque ela muito e no expert e tirar 3 estrelas no minimo

  • cyratux cyratux: Postado em 16/07/2012 11:30

    naun ta 100% certa

Exibindo 10 de 29 comentários Mostrar mais ver todos »
Composição: Matthew Bellamy
Esse não é o compositor? Avise-nos.
Contribuição: Eliakin Wildner Correções: Elder , Giordano Luiz e mais 2 »
  1. Tudo Que Você Quiser - Luan Santana Manteve-se 6.122 exibições
  2. Lepo Lepo - Psirico Manteve-se 4.394 exibições
  3. Mozão - Lucas Lucco Manteve-se 4.201 exibições
  4. Logo Eu - Jorge e Mateus Manteve-se 4.020 exibições
  5. Pra Você - Onze:20 Manteve-se 4.019 exibições
  6. Gaveta - Fernando e Sorocaba Manteve-se 3.769 exibições
  7. Só Os Loucos Sabem - Charlie Brown Jr. Manteve-se 3.071 exibições
  8. Tempo Perdido - Legião Urbana Manteve-se 2.714 exibições
  9. Fui Fiel - Gusttavo Lima Manteve-se 2.713 exibições
  10. Domingo de Manha - Marcos e Belutti Manteve-se 2.289 exibições
  1. Jorge e Mateus- Manteve-se 23.884 exibições
  2. Legião Urbana- Manteve-se 21.696 exibições
  3. Luan Santana- Manteve-se 17.411 exibições
  4. Charlie Brown Jr.- Manteve-se 17.352 exibições
  5. Fernandinho- Manteve-se 14.841 exibições
  6. Católicas- Manteve-se 11.201 exibições
  7. Thalles Roberto- Manteve-se 11.085 exibições
  8. Gusttavo Lima- Manteve-se 11.009 exibições
  9. Victor e Leo- Manteve-se 10.721 exibições
  10. Bruno e Marrone- Manteve-se 10.310 exibições
Exibir acordes »

Cifras e tabs

Fórum Cifra Club

Aprenda

Cifra Club News

Mais Serviços Cifra Club ID

Studio Sol

©1996 - 2014 Cifra Club · o primeiro, maior e mais acessado do Brasil · 329 mil músicas · 6.0 milhões pessoas cadastradas

publicidade
fechar