Neutron Star Collision

Muse

 Muse
Tom: C#
		
(intro)


E|----------------------------------|
B|----------------------------------|
G|----------------6-6-6--10-10-10---|
D|-4-4-4---7-7-7--6-6-6--10-10-10---|
A|-4-4-4---7-7-7--4-4-4--8--8--8----|
E|-2-2-2---5-5-5--------------------|



E|----------------------------------|
B|----------------------------------|
G|----------------------6~~~--------|
D|---------------4-4-67-------------|
A|--------4--310--------------------|
E|-2--45----------------------------|


(verso - Não tem guitarra até o refrão)

(refrão)
Mesma Cifra da intro
C#    Fm         F#            G#
I was searching you were on a mission
C#              Fm              F#             G#
Then our hearts combined like a neutron star collision
Fm     F               A#m
I have nothing left to lose
    G#                C#
You took your time to choose
        Fm              F#               G#
Then we told each other with no trace of fear that

(refrão o Matt faz umas viradas - F# pro G# e pro A e outas, anotadas aqui.
As notas mais curtas ficarão em parênteses)

F# ( G# )(A)            C#   (D#) F
Our Love      would be  forever
          F#  (G#) A
And if we die
               C#   (D#) F
  We'll die together
    F#  (G#) A        C#   (D#) F
And Lie,        I say never
           F#  (G#) A              C# C# C#
'cause our love        would be forever

    C#       Fm      F#            G#
The world is broken, halos fail to glisten
    C#            Fm            F#               G#
We try to make a difference but no one wants to listen
Fm       F                   A#m
Hail the preachers, fake and proud
      G#                C#
Their doctrines will be cloud
             Fm             F#               G#
Then they'll dissipate like snowflakes in an ocean

F# (G#) A        C#   (D#) F
Love      is forever
          F#  (G#) A
And we'll die
               C#   (D#) F
  We'll die together
     F#  (G#) A        C#   D# F
And Lie,        I say never
           F#  (G#) A              C# C# C#
'cause our love        could be forever

(solo 2x) C# Fm F# G#

(solo - reverb)

E|9~-8-4-6-4---4-2-------9-11-11/13-13b-11---------11-13b-9~--|
B|----------7-6---------9------------------14-13-14-----------|
G|--------------------10--------------------------------------|
D|------------------------------------------------------------|
A|------------------------------------------------------------|
E|------------------------------------------------------------|


Fm           F               A#m
Now I've got nothing left to lose
    G#                C#m
You took your time to choose
      Fm              F#              G#
I can tell you now without a trace of fear

         F#  A            C#   Fm
That my love will be forever
           F# A          C#    Fm
And if we die, we die together
     F# A        C#  Fm
But lie I said never
           F# A          C#
Cause our love would be forever

(solo piano)

Comentários 2

  • Vitor Vitor: Postado em 22/09/2013 17:49

    Coloquem o capotraste na 1ª casa e aumentem meio tom. Muito mais fácil!

  • winchester08 winchester08: Postado em 20/09/2011 17:09

    foda

Composição: Matthew Bellamy
Esse não é o compositor? Avise-nos.
Contribuição: joyce_amaral Correções: renanmed , Pedro_FoxHound e mais 2 »
Exibir acordes »
publicidade
fechar