Supremacy

Muse

 Muse
Tom: C
		
Intro:  Am

Am
Wake to see
                            E
Your true emancipation is a fantasy.
Dm                                          Am
All the seas have risen up and overcome the brave.

Am                                            E
Greatness dies, unsung and lost, invisible to history.
Dm                                             Am
Embedded spies brainwashing our children to be mean.

Refrão
F              C
You don't have long
     Am     E
I am on to you
    F            Am7        E4       E
The time, it has come to destro------y...
              Am
Your supremacy

Solo


 Am
E|----------------------------
B|----------------------------
G|--9-------------------------
D|-----------10-7-------------
A|-----------------------7----
E|----------------------------



E|---------------------------------------------------------------------------
B|---------------------------------------------------------------------------
G|-----------------------------9--------7------------------------------------
D|--7--------9--------10-------------------------10-------9h-10h9--7---------
A|---------------------------------------------------------------------------
E|---------------------------------------------------------------------------



 E                                            Dm
E|---------------------------------------------------------------------------
B|---------------------------------------------------------------------------
G|---------------------------------------------7-----------------------------
D|--9--------6--2~~------------------------------7---------------------------
A|-------------------------------------------------8--------0----------------
E|---------------------------------------------------------------------------



                                                                     Am
E|----------------------------------------------------------------------------|
B|----------------------------------------------------------------------------|
G|-----------------------------9--------7-------------------------------------|
D|-----------------------------------------------10-------9h-10h9--7--10~~----| 2x
A|--5--------7--------8-------------------------------------------------------|
E|----------------------------------------------------------------------------|


F              C
You don't have long
     Am     E
I am on to you
    F            Am7        E4       E
The time, it has come to destro------y...
              Am
Your supremacy
Texto Colunas
Alterar tom ½ tom ½ tom
afinação acordes na letra esconder tabs mais »
10.958 exibições

Comentários 0

Composição: Matthew Bellamy
Esse não é o compositor? Avise-nos.
Contribuição: orB Correções: orB »
  1. Domingo de Manhã - Marcos e Belutti Manteve-se 102.105 exibições
  2. Logo Eu - Jorge e Mateus Manteve-se 47.110 exibições
  3. Não Vai Voltar - Onze:20 Manteve-se 43.626 exibições
  4. Maus Bocados - Cristiano Araújo Manteve-se 41.276 exibições
  5. Pra Você - Onze:20 Manteve-se 40.811 exibições
  6. Recaídas - Henrique e Juliano Manteve-se 40.053 exibições
  7. Só Os Loucos Sabem - Charlie Brown Jr. Manteve-se 32.225 exibições
  8. Aonde Quer Que Eu Vá - Os Paralamas do Sucesso Manteve-se 32.124 exibições
  9. É Preciso Saber Viver - Titãs Manteve-se 30.368 exibições
  10. Pais e Filhos - Legião Urbana Manteve-se 30.068 exibições
  1. Jorge e Mateus- Manteve-se 292.826 exibições
  2. Legião Urbana- Manteve-se 218.900 exibições
  3. Charlie Brown Jr.- Manteve-se 152.408 exibições
  4. Marcos e Belutti- Manteve-se 125.986 exibições
  5. Fernandinho- Manteve-se 124.613 exibições
  6. Henrique e Juliano- Manteve-se 117.899 exibições
  7. Bruno e Marrone- Manteve-se 108.690 exibições
  8. Onze:20- Manteve-se 108.022 exibições
  9. Luan Santana- Manteve-se 94.838 exibições
  10. Thalles Roberto- Manteve-se 93.559 exibições
Exibir acordes »

Cifras e tabs

Fórum Cifra Club

Aprenda

Cifra Club News

Mais Serviços Cifra Club ID

Studio Sol

©1996 - 2014 Cifra Club · o primeiro, maior e mais acessado do Brasil · 336 mil músicas · 6.2 milhões pessoas cadastradas

publicidade
fechar