Dia D

Nando & Leandro

 Nando & Leandro Compositor: Eneu Fett
Tom: G
		
(intro solo)


E|---------------------------------------------------|
B|-----8-8/7-5---------------------------------------|
G|--/7---------7-4-7-7/9-9----9-9-9-7-4-5-4-5-5/7-7--|
D|-------------------------/9------------------------|
A|---------------------------------------------------|
E|---------------------------------------------------|



E|---------------------------------------------------|
B|-----8-8/7-5---------------------------------------|
G|--/7---------7-4-7-7/9-9----9-9-9-7-4-5-4-5-4------|
D|-------------------------/9-------------------5----|
A|---------------------------------------------------|
E|---------------------------------------------------|


G            D
To te olhando e ta rolando,
Em              C
Um clima diferente entre nós dois
G                     D
Meu mundo para quando você me abraça
Em                       C
Não dá pra esperar e nem deixar pra depois

G            D
To te olhando e ta rolando
Em              C
Nosso momento acaba de chegar
G                      D
Feche os olhos que agora não tem mais jeito
Em        C
Chegou a hora de beijar

Em              D
Passo a passo aconteceu
C
E pouco a pouco a gente se envolveu
Em                         D                 C
Cara a cara frente a frente não da pra evitar

(refrão)
G                                 D
Acho que o nosso Dia D acaba de chegar
Em                           C
Dia de se abraçar dia de se beijar
G                    D               C
Dia de te querer por toda a madrugada

G                                 D
Acho que o nosso Dia D acaba de chegar
Em                           C
Dia de se abraçar dia de se beijar
G                  D                      C
Dia de te querer e não pensar mais em nada

(solo)

G            D
To te olhando e ta rolando
Em              C
Nosso momento acaba de chegar
G                      D
Feche os olhos que agora não tem mais jeito
Em        C
Chegou a hora de beijar

Em              D
Passo a passo aconteceu
C
E pouco a pouco a gente se envolveu
Em                         D                 C
Cara a cara frente a frente não da pra evitar

(refrão 2x)

(solo final)

E|--------------------------------------------------3-3---|
B|-----8-8/7-5--------------------------------5-3-5-3-3---|
G|--/7---------7-4-7-7/9-9----9-9-9-7-4-5-4-5-------------|
D|-------------------------/9-----------------------------|
A|--------------------------------------------------------|
E|--------------------------------------------------------|
486 exibições

Comentários 0

Consegui tocarAinda não conseguiram tocar essa música. Seja o primeiro!
    Não consegui tocar
    Exibir acordes »
    publicidade
    fechar