Deus É Fiel

Nani Azevedo

 Nani Azevedo
Tom: A
		
(intro - violão e teclado)


             D    E     A               D   C#m7  F#m7
E|------------------------------------------------------|
B|--2--3--5--7--5--0--2--2--3--5--7--10--9--12--10------|
G|------------------------------------------------------|
D|------------------------------------------------------|
A|--0--2--4--5--4-----0--0--2--4--5---9--7--11---9------|
E|-----------------4------------------------------------|



             D    E     A               D    C#m7  A
E|------------------------------------------7--5--5-----|
B|--2--3--5--7--5--0--2--2--3--5--7--10--9--------------|
G|------------------------------------------------------|
D|------------------------------------------------------|
A|--0--2--4--5--4-----0--0--2--4--5---9--7--5--4--5-----|
E|-----------------4------------------------------------|


( A  Bm  A/C#  D  E  E/G#  A    A  Bm  A/C#  D  E  E/G#  F#m )
( A  Bm  A/C#  D  E  E/G#  A    A  Bm  A/C#  D  E  E/G#  A  A4 )

A             E/G#          F#m7         D                 A
Sim  Deus é fiel para cumprir  Toda palavra dita a mim
         E/G#           F#m7  (E/G# A E/G# F#m E)
Deus é fiel  Deus é fiel
A             E/G#          F#m7          D                 A
Sim  Deus é fiel para cumprir  Toda promessa feita a mim
         E/G#            A  (A4 A )
Deus é fiel  Deus é fiel

(refrão)
   E                                     A                A4
Eu não morrerei enquanto o Senhor não cumprir em mim
E                               A                 (A Bm A/C#)
Todos os sonhos que Ele mesmo sonhou pra mim
   D                           A           A4
Eu quero viver em santidade e adoração
E                                  A        A4
Pois é só Dele  somente Dele o meu coração

(refrão)

(intro)

   E                                     A              A4
Tu não morrerás enquanto o Senhor não cumprir em ti
E                               A               ( A Bm A/C# )
Todos os sonhos que Ele mesmo sonhou pra ti
  D                           A           (A4)
Então viverás em santidade e adoração
E                                  A          (A4)
Pois é só Dele  somente Dele o teu coração
E                                  A           (A4)
Pois é só Dele  somente Dele o teu coração
E                                  A          (A4)
Pois é só Dele  somente Dele o teu coração

(intro)

Comentários 2

  • gustavo.g.moreno.1 gustavo.g.moreno.1: Postado em 27/06/2014 22:10

    fica mais bonito os acordes com 9ª

  • Daniel Daniel: Postado em 27/02/2013 01:09

    passa ela toda em taps começei a pegar taps agr n parro mais e coloca video aula por favor

Composição: Nani Azevedo
Esse não é o compositor? Avise-nos.
Contribuição: Pastor Rogério Correções: Aldodapri , Bru e mais 3 »
Exibir acordes »
publicidade
fechar