Haruka Kanata

Naruto

 Naruto Compositor: Asian kung-fu generation
Haruka Kanata

Well, this my first tab so it isn't perfect, but i guess it is played like that.
Esse é o meu 1° tab entao não está perfeito, mas eu acho que é assim que essa musica é tocada.

G ------------------------------------------|
D ------------------------------------------|
A ------------------------------------------|		x8          
E -0--0)--0-2-0-0-5-4-—---------------------|

G -------------------------------------------------|
D -------------------------------------------------|
A -------------------------------------------------|		X2	
E -9--9--9--9—7--7--7--7--5--5--5--5--5--5--5--5--0| 

G ------------------------------------------|
D ------------------------------------------|
A ------------------------------------------|			
E -0000000000000000000000000000-------------|

G -------------------------------------------------|
D -------------------------------------------------|
A -------------------------------------------------|		
E -9--9--9--9—7--7--7--7--5--5--5--5--5--5--5--5--0| 

G ------------------------------------------|
D ------------------------------------------|
A ------------------------------------------|			
E -0000000000000000000000000000-------------| 

G ------------------------------------------|
D ------------------------------------------|
A -4--4--4-----4--6--7--4-------------------|			
E ------------4-----------------------------|  

G ------------------------------------------|
D ------------------------------------------|
A ------------------------------------------|			
E -4--4--4--0--2--0--4---0------------------|

G ----------------------------------------------------------|
D ----------------------------------------------------------|
A ---------------------2-4-------7-(7)-7--6-(6)-6-----------|			
E -5--5--5--0--2--0-----------------------------------------|

G ------------------------------------------|
D ------------------------------------------|
A -4--4--4-----4--6--7--4-------------------|			
E ------------4-----------------------------|  

G ------------------------------------------|
D ------------------------------------------|
A ------------------------------------------|			
E -4--4--4--0--2--0--4---0------------------|

G ------------------------------------------|
D ------------------------------------------|
A-------------------------------------------|			
E ---5-4-5-4-5-4-5-4-5-4-5-4-0--------------|  

G ----------------------------------------------------------|
D ----------------------------------------------------------|
A -7-7-7-7-7-7-7-7------------------------------------------|			x2
E -----------------------7-7-7-7-7-7-7-7--9-9-9-9--4-4-4-4-5-5-5-5-5-5-5-5| 



G ------------------------------------------|
D ------------------------------------------|
A ------------------------------------------|		x4          
E -0- (0)--0-2-0-0-5-4-—--------------------|

G ------------------------------------------|
D ------------------------------------------|
A ------------------------------------------|			
E -0000000000000000000000000000-------------|

G -------------------------------------------------|
D -------------------------------------------------|
A -------------------------------------------------|		
E -9--9--9--9—7--7--7--7--5--5--5--5--5--5--5--5--0| 

G ------------------------------------------|
D ------------------------------------------|
A ------------------------------------------|			
E -0000000000000000000000000000-------------|

G -------------------------------------------------|
D -------------------------------------------------|
A -------------------------------------------------|		
E -9--9--9--9—7--7--7--7--5--5--5--5--5--5--5--5--0| 


G ------------------------------------------|
D ------------------------------------------|
A -4--4--4-----4--6--7--4-------------------|			
E ------------4-----------------------------|  

G ------------------------------------------|
D ------------------------------------------|
A ------------------------------------------|			
E -4--4--4--0--2--0--4---0------------------|

G ----------------------------------------------------------|
D ----------------------------------------------------------|
A ---------------------2-4-------7-(7)-7--6-(6)-6-----------|			
E -5--5--5--0--2--0-----------------------------------------|

G ------------------------------------------|
D ------------------------------------------|
A -4--4--4-----4--6--7--4-------------------|			
E ------------4-----------------------------|  

G ------------------------------------------|
D ------------------------------------------|
A ------------------------------------------|			
E -4--4--4--0--2--0--4---0------------------|

G ------------------------------------------|
D ------------------------------------------|
A-------------------------------------------|			
E ---5-4-5-4-5-4-5-4-5-4-5-4-0--------------|  

G ------------------------------------------------------------------------|
D ------------------------------------------------------------------------|
A -7-7-7-7-7-7-7-7--------------------------------------------------------|			x2
E -----------------------7-7-7-7-7-7-7-7--9-9-9-9--4-4-4-4-5-5-5-5-5-5-5-5| 


G ------------------------------------------|
D ------------------------------------------|
A ------------------------------------------|			
E ---5-4-0-5-4-0-5-4-0-5-4-0----------------|  

G ----------------------------------------------------------|
D ----------------------------------------------------------|
A --4-4-4-4--2-2-2-2---0-0-0-0-0-0-0-0-0-0-0-0--------------|		x2	
E --------------------------------------------------------0-|  

G --------------------------------------------------------------|
D --------------------------------------------------------------|
A --------------------------------------------------------------|			
E --4-4-4--9-9-9-9---5-5-5-5---7--7--5--5---4-4-4-4--9--9--9--9-|  

G ----------------------------------------------------------------|
D ----------------------------------------------------------------|
A ----------------------------------------------------------------|			
E -5-x-x 5-x-x--5-x-x-5-x-x- 5-5-5-5-5-5-5-5-5-5-5-5-5-0----------|

(drums)

G ------------------------------------------|
D ------------------------------------------|
A --4-4-4-4--2-2-2-2---0--------------------|		
E ------------------------------------------

Comentários 0

Composição: Asian Kung fu generation
Esse não é o compositor? Avise-nos.
Contribuição: Ninki
Consegui tocarAinda não conseguiram tocar essa música. Seja o primeiro!
    Não consegui tocar
    publicidade
    fechar