Boas Festas

Natal

 Natal
Tom: D
		

E |-5-7-9-10-10--10-9-10-9-7-5--9-10-9-7-5-5-5--5-7-5-3-2-2-2---0---0------|
B |-----------------------------------------------------------1---1---1-1-1|
G |------------------------------------------------------------------------|
D |------------------------------------------------------------------------|
A |------------------------------------------------------------------------|
E |------------------------------------------------------------------------|



E |-5-7-9-10-10--10-9-10-9-7-5--9-10-9-7-5-5-5--5-7-5-3-2-2-2---0---0------|
B |-----------------------------------------------------------1---1---1-1-1|
G |------------------------------------------------------------------------|
D |------------------------------------------------------------------------|
A |------------------------------------------------------------------------|
E |------------------------------------------------------------------------|



E |-3-3-3-5-3-2-0-0-0-0-2-0-----5-7-9-7-5-3-2-2----------------------------|
B |-------------------------1-0--------------------------------------------|
G |------------------------------------------------------------------------|
D |------------------------------------------------------------------------|
A |------------------------------------------------------------------------|
E |------------------------------------------------------------------------|



E |-3-3-3-5-3-2-0-0-0-0-2-0-----5-7-9-7-5-7-10-10-10-----------------------|
B |-------------------------1-0--------------------------------------------|
G |------------------------------------------------------------------------|
D |------------------------------------------------------------------------|
A |------------------------------------------------------------------------|
E |------------------------------------------------------------------------|
15.186 exibições

Comentários 0

Composição: Nicola Kuperus
Esse não é o compositor? Avise-nos.
Contribuição: jhonnys
Consegui tocarAinda não conseguiram tocar essa música. Seja o primeiro!
    Não consegui tocar
    Exibir acordes »
    publicidade
    fechar