O Holy Night

Natal

 Natal
Tom: C
		
6/8 time


Intro:
   1 2 3 4 5 6 etc.
	(C)

e--------------------------------------
B--------1-----------------------------
G------0---0---------------------------
D----2-------2-------------------------
A--3-----------------------------------
E--------------------------------------


Verse:
     1 2 3 4 5 6 etc.
	(C)			      (F)		(C)

e-------------------------------------------1------------------------------------------------
B----------1--------------1---------------1---1----------------1---------------1-------------
G--------0---0----------0---0-----------2-------2------------0---0-----------0---0-----------
D------2-------2------2-------2-------3--------------------2-------2-------2-------2---------
A----3--------------3------------------------------------3---------------3-------------------
E--------------------------------------------------------------------------------------------

		
     O______Holy     Night______  The Stars are brightly Shi      -      ning.This is the 


	(C)		(G)		(C)

e--------------------------------------------------------------------------------------------
B----------1---------------------------------1--------------1--------------------------------
G--------0---0------------0----------------0---0----------0---0------------------------------
D------2-------2--------0---0------------2-------2------2-------2----------------------------
A----3----------------2-------2--------3--------------3--------------------------------------
E-------------------3------------------------------------------------------------------------

											
     Night of our   dear  Saviour's 	Birth______					


	(C)			      (F)		(C)

e-------------------------------------------1------------------------------------------------
B----------1--------------1---------------1---1----------------1---------------1-------------
G--------0---0----------0---0-----------2-------2------------0---0-----------0---0-----------
D------2-------2------2-------2-------3--------------------2-------2-------2-------2---------
A----3--------------3------------------------------------3---------------3-------------------
E--------------------------------------------------------------------------------------------


     Long Lay the World________  in   Sin and sorrow     Pi       -      ning. Till he  a - 


	(Em)		(B7)		(Em)

e---------------------------------------------------------------------------------------------
B---------------------------0-----------------------------------------------------------------
G-----------0-------------2---2------------0--------------0-----------------------------------
D---------2---2---------1-------1--------2---2----------2---2---------------------------------
A-------2-------2-----2----------------2-------2------2-------2-------------------------------
E-----0------------------------------0--------------0-----------------------------------------


   -  ppeared and the soul felt it's worth______.                A

	(G)			      (C)

e---------------------------------------------------------------------------------------
B-------------------------------------------1----------------1--------------------------  (X2)
G----------0---------------0--------------0---0------------0---0------------------------
D--------0---0-----------0---0----------2-------2--------2-------2----------------------
A------2-------2-------2-------2------3----------------3--------------------------------
E----3---------------3------------------------------------------------------------------ 


     Thrill Of       Hope_____	 The  Weary world re - jo - ices.    for
     yonder          breaks___   A    new and glorious morn_______



CHORUS:
     1 2 3 4 5 6 etc.
	(Am)				(Em)

e----------------------------------------------------------------------------------------------
B----------1--------------1--------------------------------------------------------------------
G--------2---2----------2---2--------------0---------------0-----------------------------------
D------2-------2------2-------2----------2---2-----------2---2---------------------------------
A----0--------------0------------------2-------2-------2-------2-------------------------------
E------------------------------------0---------------0-----------------------------------------

    
     Fall________________ on your    knees_______________________  Oh

	(Dm)				(Am)

e----------1--------------1--------------------------------------------------------------------
B--------3---3----------3---3--------------1---------------1-----------------------------------
G------2-------2------2-------2----------2---2-----------2---2---------------------------------
D----0--------------0------------------2-------2-------2-------2-------------------------------
A------------------------------------0---------------0-----------------------------------------
E----------------------------------------------------------------------------------------------


     Hear______________ the angels   voi       -      ces.	   O


	(C)		(G)		(C)		(F)

e----------------------------------------------------------1-----------------------------------
B----------1-------------------------------1-------------1---1---------------------------------
G--------0---0------------0--------------0---0---------2-------2-------------------------------
D------2-------2--------0---0----------2-------2-----3-----------------------------------------
A----3----------------2-------2------3---------------------------------------------------------
E-------------------3--------------------------------------------------------------------------


     Night________________ Di    -   vine__________________. Oh___Oh


	(C)		(G)		(C)

e----------------------------------------------------------------------------------------------
B----------1-------------------------------1---------------1-----------------------------------
G--------0---0------------0--------------0---0-----------0---0---------------------------------
D------2-------2--------0---0----------2-------2-------2-------2-------------------------------
A----3----------------2-------2------3---------------3-----------------------------------------
E-------------------3--------------------------------------------------------------------------


     Night___________ when christ was born_________________.      O


	(G)				(C)		(F)

e----------------------------------------------------------1-----------------------------------
B------------------------------------------1-------------1---1---------------------------------
G-----------0-------------0--------------0---0---------2-------2-------------------------------
D---------0---0---------0---0----------2-------2-----3-----------------------------------------
A-------2-------2-----2-------2------3---------------------------------------------------------
E-----3-------------3--------------------------------------------------------------------------


     Night_______________ Di    -    vine__________________. Oh___hoh__


	(C)		(G)		(C)	   GO TO A      LAST TIME GO TO B

----------------------------------------------------------------------------------------------
B----------1-------------------------------1--------------------------------------------------
G--------0---0------------0--------------0---0------------------------------------------------
D------2-------2--------0---0----------2-------2----------------------------------------------
A----3----------------2-------2------3--------------------------------------------------------
E-------------------3-------------------------------------------------------------------------


     Night___________ when christ was born_______.


A						B
	(C)					      (C)

e---------------				e-----(0)--------
B---------1-----   (X3)  TO NEXT VERSE          B------1---------   END.
G-------0---0---				G------0---------
D-----2-------2-				D------2---------
A---3-----------				A------3---------
E---------------				E----------------

						       n

Well, that's it, this is a really great song. Have fun playing it.

If you have an acoustic in the background to strum inversions of the chords listed,
it can sound really neat.

but ill leave that to you.

Here are the entire words:



O holy night, the stars are brightly shining;
It is the night of the dear Saviour's birth.
Long lay the world in sin and sorrow pining,
Till He appeared and the soul felt its worth.
A thrill of hope, the weary world rejoices,
For yonder breaks a new and glorious morn.

Fall on your knees, 
O hear the angel voices.
O night divine, 
O night when Christ was born.
O night divine, 
O night when Christ was born.


Led by the light of faith serenely beaming,
With glowing hearts by His cradle we stand.
So led by light of a star sweetly gleaming,
Here came the wise men from Orient land.
The King of kings lay thus in lowly manger,
In all our trials born to be our friend!

Fall on your knees, 
O hear the angel voices.
O night divine 
O night when Christ was born.
O night divine 
O night when Christ was born.


Truly He taught us to love one another;
His law is love and His gospel is peace.
Chains shall He break for the slave is our brother
And in His Name all oppression shall cease.
Sweet hymns of joy in chorus raise we,
Let us praise His holy Name!

(USE THE CHORUS RIFF FOR THIS PART)

Christ is the Lord, 
His name forever praise ye,
His power and glory ever more proclaim
His power and glory ever more proclaim
11.500 exibições

Comentários 1

  • grimmie_rules grimmie_rules: Postado em 26/12/2011 09:55

    puxa, eu amo mto essa musica, eh mt linda =3

Consegui tocarAinda não conseguiram tocar essa música. Seja o primeiro!
    Não consegui tocar
    Exibir acordes »
    publicidade
    fechar