Deixa O Menino Jogar

Natiruts

 Natiruts
Tom: A
		
(intro)


     A       A      A7+     A7+    D       D      Dm
E|--5-5-----5-5-------------------5-5-----5-5----5----|
B|--5--5----5--5---5-5-----5-5----7--7----7--7---6----|
G|--6---6---6------6--6----6--6---7---7---7------7----|
D|--7-------7------6---6---6------7-------7------7----|
A|--7-------7---------------------5-------5------5----|
E|--5-------5------5-------5--------------------------|



      C#m            F#m        Bm                               Dm
E|------------------------------------------------------------------------|
B|-------12/14-12/14--14/10-10--------------------------------------------|
G|-----------------------------11-1414-11-1414-11-1414--11-1414/11-10-9---|
D|------------------------------------------------------------------------|
A|------------------------------------------------------------------------|
E|------------------------------------------------------------------------|


    A          A7+           D                 Dm7
O valor de um amor            não se pode comprar
    C#m         F#m  Bm            E
Onde estará a fonte que esconde a vida
    C#m         F#m  Bm            E
Raio de sol nascente brotando a semente
F#m                  Bm
Os anos passam sem parar
                    F#m
E não vemos uma solução
                           Bm                       F#m
Só vemos promessas de um futuro que não passa de ilusão
                 Bm                                 F#m
E a esperança do povo vem da humildade de seus corações,
                            Bm
Que jogam suas vidas seu destino nas garras de famintos leões
C#m              Bm
Deixa o menino jogar ô iaiá
C#m              Bm
Deixa o menino jogar ô iaiá
C#m                 Bm
Deixa o menino aprender ô iaiá
        C#m
Que a saúde do povo daqui
    Bm
É o medo dos homens de lá
      C#m
Sabedoria do povo daqui
    Bm
É o medo dos homens de lá
        C#m
A consciência do povo daqui
    Bm                  Dm7
É o medo dos homens de lá
     A          A7+        D                    Dm7
O valor de um amor            não se pode comprar
         C#m  F#m          Bm      E
Onde estará a fonte que esconde a vida
        C#m     F#m     Bm       E
Raio de sol nascente brotando a semente
F#m	          Bm
Sinhá me diz porque é que o menino chorou
F#m                          Bm
Quando chegou em casa e num canto escuro encontrou
F#m                  Bm
A sua princesa e o moleque fruto desse amor
   F#m               Bm
Chorando de fome sem saber quem o escravizou
C#m              Bm
Deixa o menino jogar ô iaiá
C#m              Bm
Deixa o menino jogar ô iaiá
C#m              Bm
Deixa o menino aprender ô iaiá
       C#m
Que a saúde do povo daqui
    Bm
É o medo dos homens de lá
        C#m
A consciência do povo daqui
    Bm
É o medo dos homens de lá
      C#m
Sabedoria do povo daqui
    Bm                 Dm
É o medo dos homens de lá


  F#m  Bm
G|--------------------4-2------|
D|-------4-2--------------4-2--|
A|----------4-2--2-2-2-------4-| (4x)
E|-2-2-2-------5---------------|
510.139 exibições

Comentários 0

Composição: Natiruts
Esse não é o compositor? Avise-nos.
Contribuição: LeãoNardo Correções: Pedro Ras , Dudub e mais 4 »
Exibir acordes »
publicidade
fechar