Meu Reggae É Roots

Natiruts

 Natiruts
Tom: F#
		
Intro: (F# G#m C#7/9)

Solo da Intro (versão para guitarra)
Pedal WAH WAH

1ª parte

E|-----------------------------------------------------------------|
B|----14br--11-14--------------------------------14h16--16-16-14~--|
G|-11---------------13br-13/15--11---------------------------------|
D|-----------------------------------13---13/15--------------------|
A|-----------------------------------------------------------------|
E|-----------------------------------------------------------------|


2ª parte

E|-----------------------------------------------------------------|
B|----14br-11-14---------------------------------------------------|
G|-11----------------13b-13b13-11-13~---13-11-10~~-----------------|
D|-----------------------------------------------------------------|
A|-----------------------------------------------------------------|
E|-----------------------------------------------------------------|


F#                     G#m          C#
  Meu reggae é "roots", palavras também
D#m                        C#
  Mas o meu coração é brasileiro
B7M                           A#m
  Deixa eu aprender o que é o amor
          D#m
Por mais difícil que isso seja
B7M                     A#m
  Deixa que a chuva vem lavar
           D#m
A mente de alguém que deseja
  G#m
Sair cantando por aí
   C#
Tentando sempre imaginar
   A#m
Frases estranhas para dizer
          D#7
Mensagens simples de entender
   G#m
Cantando eu mando um alô
  C#
Para você que acreditou
    A#m                           D#7
Que podia ser mais feliz, vendo o outro ser feliz
   G#m                         C#             F#
E abrir seu coração e o seu sorriso todo para ela


 [Solo: (F# G#m C#)]
E|----------------------------------14------------------------------------------------|
B|-------14b-14b-14b-14*14*14*14*-------14b--14b--14---11-------11-11-----------------|
G|-11-11---------------------------------------------------13----------13b-13r--------|
D|------------------------------------------------------------------------------------|
A|------------------------------------------------------------------------------------|
E|------------------------------------------------------------------------------------|



E|------------------------------------------------------------------------------------|
B|------------------------------------------------------------------------------------|
G|--11-13-11-13--13b-11-13--------11-13b-13-11-13----11-13b--13-11------11------------|
D|---------------------------13-------------------13----------------13----------------|
A|------------------------------------------------------------------------------------|
E|------------------------------------------------------------------------------------|



E|----------14------------11-13-13b-13-11-----11---11-11-----11-13-----14-----14-----14--|
B|-14b-14b------14b~-14b------------------14--------------14-------14b-----14b---14b-----|
G|---------------------------------------------------------------------------------------|
D|---------------------------------------------------------------------------------------|
A|---------------------------------------------------------------------------------------|
E|---------------------------------------------------------------------------------------|



E|---------------14--------------------------------------------------------------------------|
B|-14br-11-----------------------------------------------------------------------------------|
G|-----------13b-----13br-13-11h13p11-----11-----11-13-13b-13-11~----------------11-13h11----|
D|-------------------------------------13----13-------------------13h11----11-13----------13-|
A|----------------------------------------------------------------------13-------------------|
E|-------------------------------------------------------------------------------------------|



E|--------------------------------14----14-16b-16*-17*-16b---11--------------------------------|
B|--------------14----14-16-14-16----16-------------------------11-14----11-11-----------------|
G|-11-13--15-15----15-------------------------------------------------13-------13b-13-11---11~-|
D|---------------------------------------------------------------------------------------13----|
A|---------------------------------------------------------------------------------------------|
E|---------------------------------------------------------------------------------------------|


F#                     G#m          C#
  Meu reggae é "roots", palavras também
D#m                        C#
  Mas o meu coração é brasileiro
B7M                           A#m
  Deixa eu aprender o que é o amor
          D#m
Por mais difícil que isso seja
B7M                     A#m
  Deixa que a chuva vem lavar
           D#m
A mente de alguém que deseja
  G#m
Sair cantando por aí
   C#
Tentando sempre imaginar
   A#m
Frases estranhas para dizer
          D#7
Mensagens simples de entender
   G#m
Cantando eu mando um alô
  C#
Para você que acreditou
    A#m                           D#7
Que podia ser mais feliz, vendo o outro ser feliz
   G#m                         C#             F#
E abrir seu coração e o seu sorriso todo para ela


E|-----------------------------------------------------------|
B|----14br--11-14-------------------------------14b14br~-----|
G|-11---------------13b-13rp11--13-11~-----------------------|
D|-----------------------------------13---13/15--------------|
A|-----------------------------------------------------------|
E|-----------------------------------------------------------|



E|-----------------------------------------------------------|
B|----14br-11-14---------------------------------------------|
G|-11----------------13b-13b13-11-13~---13-11-10~~-----------|
D|-----------------------------------------------------------|
E|-----------------------------------------------------------|
Texto Colunas
Alterar tom ½ tom ½ tom
afinação acordes na letra esconder tabs mais »
400.298 exibições
×

Comentários (2)

  • herbertmare herbertmare: Postado em 05/02/2013 23:09

    musica gostosa de tocar

  • douglashurley douglashurley: Postado em 23/12/2012 14:59

    Video Aula aqui, enclindo o solo *----*

Composição: Alexandre Carlo Cruz
Esse não é o compositor? Avise-nos.
Contribuição: michelon Correções: pedro , LeãoNardo e mais 2 »
  1. Tudo Que Você Quiser - Luan Santana Manteve-se 6.028 exibições
  2. Lepo Lepo - Psirico Manteve-se 4.297 exibições
  3. Pra Você - Onze:20 Manteve-se 4.147 exibições
  4. Mozão - Lucas Lucco Manteve-se 4.130 exibições
  5. Logo Eu - Jorge e Mateus Manteve-se 3.983 exibições
  6. Gaveta - Fernando e Sorocaba Manteve-se 3.779 exibições
  7. Só Os Loucos Sabem - Charlie Brown Jr. Manteve-se 3.131 exibições
  8. Tempo Perdido - Legião Urbana Manteve-se 2.706 exibições
  9. Fui Fiel - Gusttavo Lima Manteve-se 2.673 exibições
  10. Domingo de Manha - Marcos e Belutti Manteve-se 2.465 exibições
  1. Jorge e Mateus- Manteve-se 23.782 exibições
  2. Legião Urbana- Manteve-se 21.512 exibições
  3. Charlie Brown Jr.- Manteve-se 17.212 exibições
  4. Luan Santana- Manteve-se 17.149 exibições
  5. Fernandinho- Manteve-se 15.105 exibições
  6. Thalles Roberto- Manteve-se 11.065 exibições
  7. Católicas- Manteve-se 10.946 exibições
  8. Gusttavo Lima- Manteve-se 10.939 exibições
  9. Victor e Leo- Manteve-se 10.661 exibições
  10. Bruno e Marrone- Manteve-se 10.324 exibições
Exibir acordes »

Cifras e tabs

Fórum Cifra Club

Aprenda

Cifra Club News

Mais Serviços Cifra Club ID

Studio Sol

©1996 - 2014 Cifra Club · o primeiro, maior e mais acessado do Brasil · 329 mil músicas · 6.0 milhões pessoas cadastradas

publicidade
fechar