Meu Reggae É Roots

Natiruts

 Natiruts
Tom: F#
		
Intro: (F# G#m C#)

Solo da Intro (versão para guitarra)
Pedal WAH WAH

1ª parte


E|-----------------------------------------------------------------|
B|----14br--11-14--------------------------------14h16--16-16-14~--|
G|-11-------------13br-13/15--13-11-13-----------------------------|
D|--------------------------------------13-13/15-------------------|
A|-----------------------------------------------------------------|
E|-----------------------------------------------------------------|



2ª parte


E|-----------------------------------------------------------------|
B|----14br-11-14---------------------------------------------------|
G|-11----------------13b-13b13-11-13~---13-11-10~~-----------------|
D|-----------------------------------------------------------------|
A|-----------------------------------------------------------------|
E|-----------------------------------------------------------------|



F#                     G#m          C#
  Meu reggae é "roots", palavras também
D#m                        C#
  Mas o meu coração é brasileiro
B7M                           A#m
  Deixa eu aprender o que é o amor
          D#m
Por mais difícil que isso seja
B7M                     A#m
  Deixa que a chuva vem lavar
           D#m
A mente de alguém que deseja
  G#m
Sair cantando por aí
   C#
Tentando sempre imaginar
   A#m
Frases estranhas para dizer
          D#7
Mensagens simples de entender
   G#m
Cantando eu mando um alô
  C#
Para você que acreditou
    A#m                           D#7
Que podia ser mais feliz, vendo o outro ser feliz
   G#m                         C#             F#
E abrir seu coração e o seu sorriso todo para ela



   [Solo: (F# G#m C#)]
E|----------------------------------14------------------------------------------------|
B|-------14b-14b-14b-14*14*14*14*-------14b--14b--14---11-------11-11-----------------|
G|-11-11---------------------------------------------------13----------13b-13r--------|
D|------------------------------------------------------------------------------------|
A|------------------------------------------------------------------------------------|
E|------------------------------------------------------------------------------------|





E|------------------------------------------------------------------------------------|
B|------------------------------------------------------------------------------------|
G|--11-13-11-13--13b-11-13--------11-13b-13-11-13----11-13b--13-11------11------------|
D|---------------------------13-------------------13----------------13----------------|
A|------------------------------------------------------------------------------------|
E|------------------------------------------------------------------------------------|





E|----------14------------11-13-13b-13-11-----11---11-11-----11-13-----14-----14-----14--|
B|-14b-14b------14b~-14b------------------14--------------14-------14b-----14b---14b-----|
G|---------------------------------------------------------------------------------------|
D|---------------------------------------------------------------------------------------|
A|---------------------------------------------------------------------------------------|
E|---------------------------------------------------------------------------------------|





E|---------------14--------------------------------------------------------------------------|
B|-14br-11-----------------------------------------------------------------------------------|
G|-----------13b-----13br-13-11h13p11-----11-----11-13-13b-13-11~----------------11-13h11----|
D|-------------------------------------13----13-------------------13h11----11-13----------13-|
A|----------------------------------------------------------------------13-------------------|
E|-------------------------------------------------------------------------------------------|





E|--------------------------------14----14-16b-16*-17*-16b---11--------------------------------|
B|--------------14----14-16-14-16----16-------------------------11-14----11-11-----------------|
G|-11-13--15-15----15-------------------------------------------------13-------13b-13-11---11~-|
D|---------------------------------------------------------------------------------------13----|
A|---------------------------------------------------------------------------------------------|
E|---------------------------------------------------------------------------------------------|



F#                     G#m          C#
  Meu reggae é "roots", palavras também
D#m                        C#
  Mas o meu coração é brasileiro
B7M                           A#m
  Deixa eu aprender o que é o amor
          D#m
Por mais difícil que isso seja
B7M                     A#m
  Deixa que a chuva vem lavar
           D#m
A mente de alguém que deseja
  G#m
Sair cantando por aí
   C#
Tentando sempre imaginar
   A#m
Frases estranhas para dizer
          D#7
Mensagens simples de entender
   G#m
Cantando eu mando um alô
  C#
Para você que acreditou
    A#m                           D#7
Que podia ser mais feliz, vendo o outro ser feliz
   G#m                         C#             F#
E abrir seu coração e o seu sorriso todo para ela


1ª parte


E|-----------------------------------------------------------------|
B|----14br--11-14--------------------------------14h16--16-16-14~--|
G|-11-------------13br-13/15--13-11-13-----------------------------|
D|--------------------------------------13-13/15-------------------|
A|-----------------------------------------------------------------|
E|-----------------------------------------------------------------|



2ª parte


E|-----------------------------------------------------------------|
B|----14br-11-14---------------------------------------------------|
G|-11----------------13b-13b13-11-13~---13-11-10~~-----------------|
D|-----------------------------------------------------------------|
A|-----------------------------------------------------------------|
E|-----------------------------------------------------------------|
433.106 exibições

Comentários 2

  • herbertmare herbertmare: Postado em 05/02/2013 23:09

    musica gostosa de tocar

  • douglashurley douglashurley: Postado em 23/12/2012 14:59

    Video Aula aqui, enclindo o solo *----*

Composição: Natiruts
Esse não é o compositor? Avise-nos.
Contribuição: michelon Correções: Accacio , Ícaro e mais 3 »
Exibir acordes »
publicidade
fechar