Um Anjo do Céu

Natiruts

 Natiruts
Tom: B
		
(intro 4x)   B  F#  E  B

(riff 4x)

E|-2--------------------2--------------------|
B|------0-4-0-2/4-2~---------0-4-0-2/4-0-----|
G|-------------------------------------------|
D|-------------------------------------------|
A|-------------------------------------------|
E|-------------------------------------------|


 B
Um anjo do céu

trouxe pra mim
           C#m
é a mais bonita
       E     F#
a jóia perfeita.
             B
Que é pra eu cuidar
que é pra eu amar
             C#m
gota cristalina
              E    F#
tem toda inocência

 B            F#
Vem, oh! meu bem
            E
não chore não
                 B
vou cantar pra você. (2x)


E|----------------------------------------------|
B|----------------------------------------------|
G|-----4-----4----------4---4--4h6-4------------|
D|-4h6---6-4---6-4--4h6---6----------6-4-6------|
G|----------------------------------------------|
E|----------------------------------------------|



E|-----------------------------------------------|
B|----------------------------------7h9----------|
G|-4---4h6-4-6-6h8-6-----4-6h8-6-8---------------|
D|---6---------------4h6-------------------------|
A|-----------------------------------------------|
E|-----------------------------------------------|


        B
Um anjo do céu
Que me escolheu
               C#m
serei  o teu porto
             E   F#
guardião da pureza

             B
Que é pra eu cuidar
que é pra eu amar
             C#m
gota cristalina
              E    F#
tem toda inocência
 B            F#
Vem oh! meu bem
            E
não chore não
                 B
vou cantar pra você. (4x)

 B            F#
Vem oh! meu bem
            E
não chore não
                 B7
vou cantar pra você.
111.350 exibições

Comentários 5

  • edward.silva.90 edward.silva.90: Postado em 27/06/2013 15:41

    Batida normal de reggae ' Só Pra baixo' pressionando e soltando os acorde '

  • Felipe Felipe: Postado em 13/04/2013 12:03

    Batida Reggae só bate no "e" 1 e 2 e...

  • rhcpbass rhcpbass: Postado em 21/10/2012 17:55

    cool

  • urubusoldier urubusoldier: Postado em 26/12/2011 18:50

    alguem sabe a batida?
    pow o acored B no inicio segura muito tempo nao dee ser reagge normal tipo ^ v ^ v abafando etc...

  • diego_tartaglia diego_tartaglia: Postado em 08/02/2011 18:25

    musica foda, dá pra tirar legal.

Composição: Sabe quem é o compositor? Envie pra gente. Contribuição: R.afinha Correções: fernanda , pdrinho e mais 2 »
Exibir acordes »
publicidade
fechar