Sorri, Sou Rei

Natiruts

 Natiruts
Tom: F
		
Intro:
Parte 1 :

E|----------------------------------------------------------------|
B|------5-----------6/8\6-----------------------------------------|
G|----5---5---------7/9\7--5h7p5---------------4--7--4------------|
D|--7-------7-------------------------------5-----------5---------|
A|----------------------------------------------------------------|
E|----------------------------------------------------------------|


Parte 2:                    Parte 3 - 2x:

E|-------------------------|-----------------------------------|
B|--6/8\6------------------|--------5--------------------------|
G|--7/9\7------5h7p5-------|------5---5--------------4-5-2-----|    (4x)
D|-------------------------|----7-------7----------------------|
A|-------------------------|-----------------------------------|
E|-------------------------|-----------------------------------|


Intro: Dm7/9  G7  Am7

( Dm7/9   G7   Am7 )
Quando a esperança de uma noite de amor
lhe trouxer vontade para viver mais
E a promessa que a chance terminou
É bobagem, é melhor deixar pra trás

( Dm7/9   G7   Am7 )
Eu tô cansado de sofrer
Quero dançar, sentir calor
E poder só olhar o universo em torno de você
Brilhando em vida, sorrindo à toa
Só vibrando, amor e paz
Sinto a noite, penso em você
Lembro como é bom amar

                    Dm7/9   G7        Am7
Quando você se foi chorei, chorei, chorei
             Dm7/9         G7       Am7
Agora que voltou sorri, sorri, sou rei.
              Dm7/9      G7         Am7
Quando você se foi chorei, chorei, chorei
             F        G7       Am7
Agora que voltou sorri, sorri, sou rei.

E|-------------------------------------------------------0-|
B|-------------------------------------------------------0-|
G|-------------------------------------------------------0-|
D|---------------------------------------------------------|
A|---------------------------------------3---5/7---3-------|
E|--5---5-5---5---5-5---5---5-5---3---5---------------5----|



E|-------------0|-------------------0|---------------------|
B|-------------0|-------------------0|---------------------|
G|-------------0|-------------------0|---------------------|
D|--------------|--------------------|---------------------|
A|--------------|--------------------|---------3--5/7------|
E|--0--3--5-----|-0--3--0--3--5------|---3--5----------8--6|


 A#                                     A
  Saiba que o simples perfume de uma flor
    Dm7/9
Pode vir a ser um grande amor na sua vida
  A#                          A
   Não gaste palavras pra viver
  Dm7/9
De iludir os seus sonhos tão raros com mentiras

A#                A
 Não maltrate o coração
     Dm7/9
Que dedicou o seu sorriso, as suas batidas
 A#               A
  E será livre pra sentir
            Dm7/9
Anseios de uma paixão
  A7
E ser uma história linda

Dm7/9
Diga que me adora
A#            A
Deixe o orgulho e venha
     Dm7/9
Porque já está na hora
  A#           A        Dm7/9
Pra gente se encontrar e sermos um

Mas não demora
   A#         A    Dm7/9
Que é pra chama não desencantar
A#     A    Gm
Se esvair no ar
  C            Fmaj7
E só restar lembranças

( Dm7/9   G7   Am7 )
Eu tô cansado de sofrer
Quero dançar, sentir calor
E poder só olhar o universo em torno de você
Brilhando em vida, sorrindo à toa
Só vibrando, amor e paz

( Dm7/9   G7   Am7 )
Vejo a lua, lembro do sonho
Torço pra realizar
Sinto a noite, penso em você
Lembro como é bom amar

                Dm7/9      G7         Am7
Quando você se foi chorei, chorei, chorei
             Dm7/9         G7       Am7
Agora que voltou sorri, sorri, sou rei.
                Dm7/9       G7         Am7
Quando você se foi chorei, chorei, chorei
             F        G7       Am7
Agora que voltou sorri, sorri, sou rei
Texto Colunas
Alterar tom ½ tom ½ tom
afinação acordes na letra esconder tabs mais »
257.198 exibições

Comentários (10)

  • lilian lilian: Postado em 12/02/2014 09:15

    Muito linda essa música, me faz sentir muito bem.

  • janeiro123 janeiro123: Postado em 22/01/2014 00:49

    vídeo aula por favor!

  • budega budega: Postado em 08/12/2013 22:30

    Boaa,tranquila...

  • felipe felipe: Postado em 24/10/2013 15:42

    vídeo aula por favor cifraclub ! ,essa é umas das músicas mais tops de natiruts ... !

  • Jader Jader: Postado em 20/07/2013 19:59

    queria a tablatura

  • leonardo.rodrigues.98031 leonardo.rodrigues.98031: Postado em 16/07/2013 13:47

    cara vai pelo pararapa parará que eles fazem no começo...

  • Mr Jay Mr Jay: Postado em 04/07/2013 09:06

    Essa musica é bem fácil acho que não tem necessidade de vídeo aula

  • luislocol luislocol: Postado em 08/06/2013 22:53

    tranquilaa..

  • chimene.costa.1 chimene.costa.1: Postado em 28/08/2012 12:05

    amo essa musica éh maravilhosa

  • marcioviolao marcioviolao: Postado em 05/07/2011 21:04

    gostaria de pedir uma vídeo aula dessa musica, vocês que são instrutores poderiam fazer a video aula dessa musica muita gente curti

Composição: Sabe quem é o compositor? Envie pra gente. Contribuição: Julinho Correções: danr_fla , cfcgus e mais 7 »
  1. Tudo Que Você Quiser - Luan Santana Manteve-se 6.028 exibições
  2. Lepo Lepo - Psirico Manteve-se 4.297 exibições
  3. Pra Você - Onze:20 Manteve-se 4.147 exibições
  4. Mozão - Lucas Lucco Manteve-se 4.130 exibições
  5. Logo Eu - Jorge e Mateus Manteve-se 3.983 exibições
  6. Gaveta - Fernando e Sorocaba Manteve-se 3.779 exibições
  7. Só Os Loucos Sabem - Charlie Brown Jr. Manteve-se 3.131 exibições
  8. Tempo Perdido - Legião Urbana Manteve-se 2.706 exibições
  9. Fui Fiel - Gusttavo Lima Manteve-se 2.673 exibições
  10. Domingo de Manha - Marcos e Belutti Manteve-se 2.465 exibições
  1. Jorge e Mateus- Manteve-se 23.782 exibições
  2. Legião Urbana- Manteve-se 21.512 exibições
  3. Charlie Brown Jr.- Manteve-se 17.212 exibições
  4. Luan Santana- Manteve-se 17.149 exibições
  5. Fernandinho- Manteve-se 15.105 exibições
  6. Thalles Roberto- Manteve-se 11.065 exibições
  7. Católicas- Manteve-se 10.946 exibições
  8. Gusttavo Lima- Manteve-se 10.939 exibições
  9. Victor e Leo- Manteve-se 10.661 exibições
  10. Bruno e Marrone- Manteve-se 10.324 exibições
Exibir acordes »

Cifras e tabs

Fórum Cifra Club

Aprenda

Cifra Club News

Mais Serviços Cifra Club ID

Studio Sol

©1996 - 2014 Cifra Club · o primeiro, maior e mais acessado do Brasil · 329 mil músicas · 6.0 milhões pessoas cadastradas

publicidade
fechar