Love Hurts

Nazareth

 Nazareth
Tom: C
		
Introdução: 


   G                              F    C
E|---------3---------------3------1----0----|
B|-----------3---------------3----1----1----|
G|-------4-----4---------4-----4--2----0----|
D|-----5---------5-----5----------3----2----|
A|---5---------------5------------3----3----|
E|-3---------------3--------------1---------|


   G                              F    C   G
E|---------3---------------3------1----0----|
B|-----------3---------------3----1----1----|
G|-------4-----4---------4-----4--2----0----|
D|-----5---------5-----5----------3----2----|
A|---5---------------5------------3----3----|
E|-3---------------3--------------1--------3|



Primeira Parte:


   G               Em
E|---------3--------------------------------|
B|-----------3-------------0----------------|
G|-------4-----4---------0---0--------------|
D|-----5---------5-----2-------2------------|
A|---5---------------2-----------2----------|
E|-3---------------0------------------------|


   C9              D       C9
E|---------3--------------------------------|
B|-------3---3---------7-------3------------|
G|-----5-------5---------7-------5----------|
D|---5-----------5---7-------5--------------|
A|-3---------------5-------3----------------|
E|------------------------------------------|


   G               Em
E|---------3---------------0----------------|
B|-----------3---------------0--------------|
G|-------4-----4---------0-----0------------|
D|-----5---------5-----2---------2----------|
A|---5---------------2----------------------|
E|-3---------------0------------------------|


   C9              D       C9
E|---------3--------------------------------|
B|-------3---3---------7-------3------------|
G|-----5-------5---------7-------5----------|
D|---5-----------5---7-------5--------------|
A|-3---------------5-------3----------------|
E|------------------------------------------|


      G
Love hurts
       Em
Love scars
      C9
Love wounds 
     D
And mars

C9    G
Any heart 
     Em
Not tough 
      C9
Or strong 
  D
Enough


   G       B7      Em      B7
E|------------------------------------------|
B|-----3-------0-------0-------0------------|
G|-------4-------2-------0-------2----------|
D|---5-------1-------2-------1--------------|
A|---------2---------------2----------------|
E|-3---------------0------------------------|


   C9              D       C9
E|---------3--------------------------------|
B|-------3---3---------7-------3------------|
G|-----5-------5---------7-------5----------|
D|---5-----------5---7-------5--------------|
A|-3---------------5-------3----------------|
E|------------------------------------------|


   G                F    C
E|---------3--------1----0------------------|
B|---------3-3------1----1------------------|
G|-------4-----4----2----0------------------|
D|-----5---------5--3----2------------------|
A|---5--------------3----3------------------|
E|-3----------------1-----------------------|


   G
E|---------3---------------3----------------|
B|-----------3---------------3--------------|
G|-------4-----4---------4-----4------------|
D|-----5---------5-----5--------------------|
A|---5---------------5----------------------|
E|-3---------------3------------------------|


    C9            G
To take a lot of pain
 B7            Em
Take a lot of pain
 B7              C9
Love is like a cloud
            D       C9
Holds a lot of rain
      G
Love hurts

F   C        G
Oh, oh love hurts


Segunda Parte:

     G
I'm young
    Em
I know
    C9    D
But even so

C9         G
I know a thing 
     Em
Or two
    C9
I learned 
      D
From you

   C9               G
I really learned a lot
 B7               Em
Really learned a lot
 B7              C9
Love is like a flame
                  D        C9
It burns you when it's hot

      G
Love hurts
F   C         G
Oh, oh, love hurts


Terceira Parte:

 Em                  B7   Em
Some fools think of happiness
  B7     Em      B7    Em
Blissfulness, togetherness
 A7
Some fools fool themselves, I guess
  Am                 D
They're not foolin' me

    C9            G
I know it isn't true
    B7            Em
I know it isn't true
 B7             C9
Love is just a lie 
         D            C9
Made to make you blue
      G
Love hurts

F   C         G
Oh, oh, love hurts
F   C         G
Oh, oh, love hurts


Solo: G  Em  C9  D  C9
      G  Em  C9  D

(adaptação)


E|----------------------------------------------------|
B|-8~~b10r8--8~~b12r8--8~b12r-b10~~b12r8--------------|
G|----------------------------------------------------|
D|----------------------------------------------------|
A|----------------------------------------------------|
E|----------------------------------------------------|



E|---------------------------------22~~---------------|
B|-8~~b12r8--8~~b12r8--8~b10--b10~--------------------|
G|----------------------------------------------------|
D|----------------------------------------------------|
A|----------------------------------------------------|
E|----------------------------------------------------|



Quarta Parte:

    C9            G
I know it isn't true
    B7            Em
I know it isn't true
 B7             C9
Love is just a lie 
         D            C9
Made to make you blue
      G
Love hurts

F   C         G
Oh, oh, love hurts
F   C         G
Oh, oh, love hurts
F   C
Oh, oh

Comentários 8

  • Ricardinho Ricardinho: Postado em 27/04/2014 14:24

    cade o riff da intro?

  • Manno Borges Manno Borges: Postado em 05/09/2013 00:14

    Cara o tom pode ser em C,C# ou em D.basta transportar

  • Lucas Lucas: Postado em 16/08/2013 13:54

    ae o tom é C e não C#

  • udud1998 udud1998: Postado em 09/07/2013 15:30

    vey, nao é em C# é em C, essa tom ta errado.

  • Victor Victor: Postado em 03/07/2013 17:41

    esse solo é tudo com o Slide!!

  • mathyussen mathyussen: Postado em 24/01/2013 19:41

    Desce meio tom e coloque o capotraste na primeira casa que fica melhor para tocar ^^'

  • rony1 rony1: Postado em 27/10/2012 20:57

    o solo pelo amor d coisa verifiquem tem uns bends que eu consigo escutar umns hamerons
    entre outros

  • marcos_gava marcos_gava: Postado em 25/05/2012 22:32

    To tentando, uma hora da certo! =D

Composição: Boudleaux Bryant / Felice Bryant
Esse não é o compositor? Avise-nos.
Contribuição: leo_do_vale Correções: v.inny , Fernando e mais 2 »
Exibir acordes »
publicidade
fechar