Amor Sem Fim

Nechivile

 Nechivile
Tom: F
		
(intro 2x) F Am Gm Bb F C 

(solo)


E|----------------------8-10--------------------------------6-5-6-8-----------------------|
B|--------6-8-8/10~--10------10-8-8-6-6/8---8-8-10-6----6---------8/10--10^-8----8--------|
G|---5-7-----------------------------------------------5-7-----------------------10-------|
D|-----------------------------------------------------------------------------------10---|
A|----------------------------------------------------------------------------------------|
E|----------------------------------------------------------------------------------------|



E|----------------------8-10--------------------------------6-5-6-8---------------------------|
B|--------6-8-8/10~--10------10-8-8-6-6/8---8-8-10-6------6---------8/10---8/10-8------10/13~-|
G|---5-7----------------------------------------------5-7-------------------------9/10--------|
D|--------------------------------------------------------------------------------------------|
A|--------------------------------------------------------------------------------------------|
E|--------------------------------------------------------------------------------------------|


     F                 Am                   Gm
Teu olhar invade minha alma,teu sorriso me acalma,
   Bb         F  C
me prende a você,ahh!!!!
  F                       Am
Me pego viajando nos teus beijos,decifrando seus
  Gm          Bb          F   C
desejos,minha fonte de prazer,ahh!!!!


E|---------------------------|
B|---13-13-13-11-10(11)-8----|
G|---------------------------|
D|---------------------------|
A|---------------------------|
E|---------------------------|


Gm        Bb        C
Meu corpo colado ao teu


E|---------13--12---10---8---5~---|
B|--8/10-8---8----8----8---8------|
G|--------------------------------|
D|--------------------------------|
A|--------------------------------|
E|--------------------------------|


    F    Am     Bb
me leva ao infinito


E|---------------------------|
B|---8-10-11--10--8~---------|
G|---------------------------|
D|---------------------------|
A|---------------------------|
E|---------------------------|


Gm         Bb      C
Não seu se já percebeu


E|---------13--12---10---8---5~---|
B|--8/10-8---8----8----8---8------|
G|--------------------------------|
D|--------------------------------|
A|--------------------------------|
E|--------------------------------|


     F          Bb     C
mas você,meu bem,mexe comigo


E|---------------------------------------8-|
B|------6-8-11----10----8------------------|
G|--5-7----------------------10-----7/9----|
D|-------------10----10---10----10---------|
A|-----------------------------------------|
E|-----------------------------------------|


(refrão)
(o solilho durante o refrão é tocado na corda mais fina)


          F e|-8-(+ou-8x)-| C e|-8-(+ou-8x)-|

Você irá descobrir   todo segredo que eu tenho


    Gm e|-6-(+ou-4x)-|   Bb e|-6-(+ou-4x)-|  C e|-8-(+ou-8x)-|

guardado               dentro do           peito.

 
          F e|-8-(+ou-8x)-| C e|-8-(+ou-8x)-|

Deusa dos meus olhos,dona de mim,essa é a nossa


   Gm e|-6-(+ou-4x)-| Bb e|-6-(+ou-4x)-| C e|-8-(+ou-8x)-| F    C

história de       um amor sem fim,de um amor sem fim.

( F Am Gm Bb F C )

(solo)


E|----------------------8-10--------------------------------6-5-6-8---------------------------|
B|--------6-8-8/10~--10------10-8-8-6-6/8---8-8-10-6------6---------8/10---8/10-8------10/13~-|
G|---5-7----------------------------------------------5-7-------------------------9/10--------|
D|--------------------------------------------------------------------------------------------|
A|--------------------------------------------------------------------------------------------|
E|--------------------------------------------------------------------------------------------|



E|---------------------------|
B|---13-13-13-11-10(11)-8----|
G|---------------------------|
D|---------------------------|
A|---------------------------|
E|---------------------------|


Gm        Bb        C
Meu corpo colado ao teu


E|---------13--12---10---8---5~---|
B|--8/10-8---8----8----8---8------|
G|--------------------------------|
D|--------------------------------|
A|--------------------------------|
E|--------------------------------|


    F    Am     Bb
me leva ao infinito


E|---------------------------|
B|---8-10-11--10--8~---------|
G|---------------------------|
D|---------------------------|
A|---------------------------|
E|---------------------------|


Gm         Bb      C
Não seu se já percebeu


E|---------13--12---10---8---5~---|
B|--8/10-8---8----8----8---8------|
G|--------------------------------|
D|--------------------------------|
A|--------------------------------|
E|--------------------------------|


     F          Bb     C
mas você,meu bem,mexe comigo


E|---------------------------------------8-|
B|------6-8-11----10----8------------------|
G|--5-7----------------------10-----7/9----|
D|-------------10----10---10----10---------|
A|-----------------------------------------|
E|-----------------------------------------|


(refrão)
(o mesmo solinho do 1º refrão é repetido aki)

              F           C
Você irá descobrir todo segredo que eu tenho
    Gm   Bb        C
guardado dentro do peito.
               F             C
Deusa dos meus olhos,dona de mim,essa é a nossa
   Gm          Bb       C
história de um amor sem fim.
              F           C
Você irá descobrir todo segredo que eu tenho
   Gm   Bb        C
gurdado dentro do peito.
               F             C
Deusa dos meus olhos,dona de mim,essa é a nossa
   Gm          Bb       C                  Bb   F
história de um amor sem fim,de um amor sem fim.

(final)


E|-------------------|
B|--------6-8-8/10~--|
G|---5-7-------------|
D|-------------------|
A|-------------------|
E|-------------------|
113.190 exibições

Comentários 1

Composição: Everton Matos/Rivanil/Jairo Góes
Esse não é o compositor? Avise-nos.
Contribuição: Morcego Correções: pauloricardorsx , slash e mais 2 »
Consegui tocarAinda não conseguiram tocar essa música. Seja o primeiro!
    Não consegui tocar
    Exibir acordes »
    publicidade
    fechar