Por Toda Vida

Nechivile

 Nechivile
Tom: G
		
(intro) G D C D

(solo)

E |-----3-3------3-3------5-5--------5-5-----
B |-1p3-------1p3------1p3--------1p3------3-
G |------------------------------------------
D |------------------------------------------
A |------------------------------------------
E |------------------------------------------



E |---5p7-8-7-5-3---3-5h7--8-7-5-------------
B |---------------5--------------------------
G |------------------------------------------
D |------------------------------------------
A |------------------------------------------
E |------------------------------------------



E |-----3-3------3-3------5-5--------5-5-----
B |-1p3-------1p3------1p3--------1p3------3-
G |------------------------------------------
D |------------------------------------------
A |------------------------------------------
E |------------------------------------------



E |----5p7-8-7-5-3-----3-12-10-8-10-8-7-5----
B |----------------5-3-----------------------
G |------------------------------------------
D |------------------------------------------
A |------------------------------------------
E |------------------------------------------


   G                          Bm
Só consigo pensar em você, tá demais em mim essa paixão.
        C                Am          D          D4 D
Os meus olhos só querem te ver, você mora no meu coração.
      G                              Bm
É uma pena que você não queira, dividir comigo esse amor.
       C                      Am          D
Mas eu não desisto assim tão fácil, de você....
      G                  D            C
Se me toco eu te vejo é tanto desejo, não vejo
      D
outra saída.
      G                   D             C
Eu te amo te quero, eu te sinto te espero, por toda
D11 D
vida....

(refrão)
          G
Ficar sem você é saudade demais, sem os teus
D
carinhos não vivo jamais.
            C                     Am
Se você soubesse o quanto eu te quero ficaria
D
comigo...
            G
Ficar sem você é saudade de mais, sem os teus
  D
carinhos não vivo jamais.
           C                       Am
Se você soubesse o quanto eu te quero ficaria
  D                (solo)  G  D  C  D
comigo... Por toda vida

      G                  D               C
Se te toco eu te beijo é tanto o desejo, não vejo
      D
outra saída.
      G                    D              C
Eu te amo te quero, eu te sinto te espero, por toda
D
vida....

(refrão)
          G
Ficar sem você é saudade demais, sem os teus
D
carinhos não vivo jamais.
            C                      Am
Se você soubesse o quanto eu te quero ficaria
D
comigo...
          G
Ficar sem você é saudade demais, sem os teus
  D
carinhos não vivo jamais.
           C                       Am
Se você soubesse o quanto eu te quero ficaria
  D                 G (riff)    C    G (riff)   C   G (riff) (final)
comigo... Por toda vida


 (riff)           C
E |-------------
B |-------------
G |-------------
D |-------------
A |------2-3----
E |-3--5--------


(final)

E |-8-7--5------
B |--------8----
G |-------------
D |-------------
A |-------------
E |-------------

Comentários 2

  • Marcio Marcio: Postado em 17/12/2013 17:57

    essescaras só tem musica top

  • thiagofilg thiagofilg: Postado em 24/12/2011 12:41

    Legal e fácil essa msk (:

Composição: Everton MAtos/Rivanil/Jairo Góes
Esse não é o compositor? Avise-nos.
Contribuição: Celsin Correções: Gessner , THULIO MELO e mais 5 »
Exibir acordes »
publicidade
fechar