Rotolando Verso Sud

Negrita

 Negrita
Tom: A#
		
by Nannarè

intro:SIb-FA-DOm
strofa:DOm-SIb-FA
rit:SIb-FA-DOm
tromba:DOm-SIb-FA

guitar reef

 -10-------10-------10-----5-----5-----5---|
 ----11-------11-------------6-----6-------|
 -------10-------10------------5-----5-----|
 ------------------------------------------|
 ------------------------------------------|
E------------------------------------------|


solo tromba (semplicemente perfetto...!)

 --------------------------------------------------------------------------|
 ---------8-----------------------------------------------------------8-11-|
 -7-8-10---8-10-7-8----7-----------------------------------------7-10------|
 -------------------10---8-10-7-8----7-----------8-10-10----8-10-----------|
 ---------------------------------10---8**----10---------------------------|
 --------------------------------------------------------------------------|



 -8-9-10-13-----11-10-8----------------|
 -----------------------11-8-----------|
 ----------------------------10-8-10---|
 --------------------------------------|
 --------------------------------------|
E--------------------------------------|
808 exibições

Comentários 0

Exibir acordes »
publicidade
fechar