Folhas Secas

Nelson Cavaquinho

 Nelson Cavaquinho
Tom: A#
		
(versão simplificada)


(intro) F C7


E|-----------------------------------------------------------------------------
B|-----------------------------------------------------------------------------
G|-----------------------------------------------------------------------------
D|------1-------1-----1---1-----------1---1-----1---------1--0--------------1--
A|---1------1-------1---1---1--0----1---1----1-----0--------------0-----1------
E|-----------------------------------------------------------------------------



E|-----------------------------------------------------------------------------
B|-----------------------------------------------------------------------------
G|-----------------------------------------------------------------------------
D|-------------1--3--4--3--1---------------------------------------------------
A|--0--1--3--4-----------------4--3--1--0--------------------------------------
E|-----------------------------------------4--3--------------------------------


 F                        Eb7  D7
Quando eu piso em folhas secas
Gm                 Bbm C7
Caídas de uma mangueira
Gm               Db7 C7
Penso na minha escola
F       Abº    Gm        C7     F
E nos poetas da minha estação primeira
F                Eb7 D7
Não sei quantas vezes
Gm               Db7 C7
Subi o morro cantando
Gm                  G7  C7
Sempre o Sol me queimando
F    D7      Gm C7  F
E assim vou me acabando.
Dm7       Am7
Quando o tempo avisar
Cm7     D7/9     Gm7
Que eu não posso mais cantar
  Bbm7     Am7      D7
Sei que vou sentir saudade
    G7
Ao lado do meu violão
    Gm7        C7
E da minha mocidade.
55.455 exibições

Comentários 0

Composição: Guilherme DeBrito / Jr. / K. Lidon / Lionel Delmore / Nelson Cavaquinho
Esse não é o compositor? Avise-nos.
Contribuição: J.B.Goode Correções: Otto e mais 1 »
Exibir acordes »
publicidade
fechar