Julho 83 (Ver. 2)

Nenhum de Nós

 Nenhum de Nós
Tom: G
		
        G        G/F#  Em  Em/D 
Acho que era julho de   83 
            C9 
Eu sempre esqueço do dia 
     D 
Mas lembro do mês 
         G              G/F# 
A gente mal se conhecia 
           Em            Em/D 
Nos vimos apenas uma vez 
               C9 
Mas foi como a fotografia  
            D 
De um velho filme francês 
            G                   G/F# 
Não fosse a roupa que eu vestia 
           Em           Em/D 
Naquele estilo new wave 
              C9 
Quem sabe eu conseguiria  
        D 
Chegar perto de você 

                  G            D 
           Adolescência vazia 
                     C 
           Eu tinha quase 16 
                       G           D 
           Ninguém me compreendia 
                             Em          A 
           E eu não compreendia ninguém 

        G          G/F# 
Fiquei ali sentado 
        Em            Em/D 
Sentado sobre as mãos 
            C9 
Pensando em te perder 
      D 
Querendo te encontrar 
        G                 G/F# 
E foi então que aconteceu 
        Em         Em/D 
Você me viu olhar 
          C9 
E veio em minha direção 
        D 
Sorrindo disse Olá 
        G            G/F# 
E neste dia começou 
           Em      Em/D 
A nossa história 
         C9 
Que continua até hoje 
       D 
E só parece melhorar 
  
      G            D 
           Adolescência vazia 
                     C 
           Eu tinha quase 16 
                       G           D 
           Ninguém me compreendia 
                             Em          A 
           E eu não compreendia ninguém 

 Solo: 


e|------------------------------------3-3--3--7--7--7--5--5--| 
B|-----------------------3-3---5-3-3/5----5---8--8--8--7--7--| 
G|------------0-0h2-0---4------------------------------------| 
D|-------0-0h2-----------------------------------------------| 
A|--0-0h2----------------------------------------------------| 
E|-----------------------------------------------------------| 



e|----108--8--8--7h8p7-------------------------------------------| 
B|--10------------------8--8--8--8--8-------7-7-8-7---------------| 
G|------------------------------7-----7---------------------------| 
D|---------------------------------------5/7--------7-7-7-5-4-4/5-| 
A|----------------------------------------------------------------| 
E|----------------------------------------------------------------| 



e|------5--7--8-----10----10---10----10--10/12-10/12--8p7---7-5-3-| 
B|---8--7--8--8--7h8---7h8---7h8---7h8-------------------8--8-7-5-| 
G|--9-------------------------------------------------------------| 
D|----------------------------------------------------------------| 
A|----------------------------------------------------------------| 
E|---------------------------------------------------------------- 


******* 

A música é dedilhada nos versos e batida no Refrão. Use os acordes do 
jeito mostrado acima, pois diferente soará errado... note que as 2 
últimas casas sempre estão na mesma posição: Mi solta e Si na 2º =} 
O dedilhado é este  (p i m a | m i m), mas por precaução aí vai ele tablado: 

O começo do dedilhado das 2 partes dos versos são tocados 
um pouco diferentes. Não é muita coisa, é bem simples: 


            G                 G/F# 
E|----------------0-----------------0----------|| 
B|--------------3-----3---3-------3------------|| 
D|------------4---------4-------4--------------|| 
G|----------5-----------------4----------------|| 
A|---------------------------------------------|| 
e|---------------------------------------------|| 

   Acho que era julho... 


            Em                Em/D 
E|----------------0-----------------0----------|| 
B|--------------3-----3---3-------3------------|| 
D|------------0---------0-------0--------------|| 
G|----------2-----------------0----------------|| 
A|---------------------------------------------|| 
e|---------------------------------------------|| 

   de oitenta e três... 


            C9 (uma batida) 
E|----------0------------------0----------------|| 
B|----------3--------------------3--------------|| 
D|----------0----------------------0------------|| 
G|----------2-----------------------------------|| 
A|----------3-----------------------------------|| 
e|----------0-----------------------------------|| 

   eu sempre esqueço do dia.. 


            G                 G/F# 
E|----------------0-----------------0----------|| 
B|--------------3-----3---3-------3-----3---3--|| 
D|------------4---------4-------4---------4----|| 
G|----------5-----------------4----------------|| 
A|---------------------------------------------|| 
e|---------------------------------------------|| 

   A gente mal se conhecia 


            Em                 Em/D 
E|----------------0-----------------0----------|| 
B|--------------3-----3---3-------3-----3---3--|| 
D|------------0---------0-------0---------0----|| 
G|----------2-----------------0----------------|| 
A|---------------------------------------------|| 
e|---------------------------------------------|| 

   Nos vimos apenas uma vez 


            C9 
E|----------------0-----------------0----------|| 
B|--------------3-----3---3-------3-----3---3--|| 
D|------------0---------0-------0---------0----|| 
G|---------------------------------------------|| 
A|----------3-----------------3----------------|| 
e|---------------------------------------------|| 

   Mas foi como a fotografia 


            D 
E|----------------0-----------------0----------|| 
B|--------------3-----3---3-------3-----3---3--|| 
D|------------2---------2-------2---------2----|| 
G|----------0-----------------0----------------|| 
A|---------------------------------------------|| 
e|---------------------------------------------|| 

   De um velho filme francês 


Esquema da batida:  
baixo | baixo cima | cima baixo 
  |       |   /¯     /¯   | 
 _/     _/   |       |   _/ 

19.009 exibições

Comentários 0

Exibir acordes »
publicidade
fechar