Paz e Amor (acustico)

Nenhum de Nós

 Nenhum de Nós Compositor: Nenhum de nós
Tom: D
		

Intro: A  G  A  G
E|-------0------------0------------0------------0-----------|
B|-----5---5--------0---0--------0---0--------0---0---------|
G|---6-------6----9-------9----7-------7----7-------7-------|   (2x)
D|-7------------6------------5------------4-----------------|
A|----------------------------------------------------------|
E|----------------------------------------------------------|


                A   E            G      D/F#
Com flores na cabeça/Nossos pés descalços
            A  E           G    D/F#     A
Nossa vida toda de/Paz e amor... Paz e amor

E|--9-7------------------------9---7-9-7-9-10-9-7----10-9-10/12-9---9--9-10-7-9-|
B|------10-9-10-9-7----------7--------------------10----------------------------|
G|------------------9-6--7-9----------------------------------------------------|   (2x)
D|------------------------------------------------------------------------------|
A|------------------------------------------------------------------------------|
E|------------------------------------------------------------------------------|



E|--10-9-7----10-9-7----9-6/7--|
B|---------10--------10--------|
G|-----------------------------|
D|-----------------------------|
A|-----------------------------|
E|-----------------------------|


A          A7+         A4         A
Chame a família Avise o tio e o avô
      G           D/F#
Hoje todos vão saber
               A
Que a sua garotinha se casou
A        A7+               A4          A
Proibida Escondida Muito jovem pra escolher
     G            D/F#
Sua mãe quase desmaia
           A
E seu pai diz que quer morrer
      A        A7+               A4          A
Eu já fui seu namorado Por isso ela me chamou

            G         D/F#            A
Para que eu fosse testemunha dessa história
          G             D/F#      E
Que seja linda como um dia foi a nossa
                 A E
Com flores na cabeça
             G    D/F#
Nossos pés descalços
            A E
Nossa vida toda de
        G D/F#          A
Paz e amor      (paz e amor..)

E|---------5-|
B|-2-2-3/5---|
G|-----------|
D|-----------|
A|-----------|
E|-----------|


 A        A7+               A4          A
Avise a vizinha Mande chamar o seu irmão
      G            D/F#
Eles tem que conhecer
       A
A sua mais nova paixão
       A        A7+           A4          A
Um estudante dependente Da mesada de seu pai
      G            D/F#     A
Um garoto com os braços tatuados
         G         D/F#        E
E por você perdidamente apaixonado
                 A E
Com flores na cabeça
             G    D/F#
Nossos pés descalços
            A E
Nossa vida toda de
        G D/F#          A     G D/F#
Paz e amor      (paz e amor..)
46.195 exibições

Comentários 2

  • zaparty zaparty: Postado em 22/04/2013 21:27

    caramba perfeita

  • sansion sansion: Postado em 07/11/2011 17:24

    muito boa, velhos tempos

Composição: Sabe quem é o compositor? Envie pra gente. Contribuição: lupino Correções: beulke e mais 1 »
Exibir acordes »
publicidade
fechar