Igen Igen

Nephew

 Nephew
Tom: G#
		
Tabbed by: Bee-Ay
Email: L*

Tuning: Standard.

Intro:

e|---------------------------------------------------|
B|---------------------------------------------------|
G|---------------------------------------------------|
D|---3---3------------3---3------------3---3---------|
A|-----------6---6------------6---6------------6---6-|
E|-1---1---4---4----1---1---4---4----1---1---4---4---|



e|---------------------------------------------------|
B|---------------------------------------------------|
G|---------------------------------------------------|
D|---3---3------------3---3------------3---3---------|
A|-----------6---6------------6---6------------6---6-|
E|-1---1---4---4----1---1---4---4----1---1---4---4---|



e|--------------------------------------------------------|
B|--------------------------------------------------------|
G|--------------------------------------------------------|
D|---3---3------------3---3------------3---3--------------|
A|-----------6---6------------6---6------------6----------|
E|-1---1---4---4----1---1---4---4----1---1---4---4--4-3/1-|



Vers:

e|-------------------------------------------------------------------------|
B|-------------------------------------------------------------------------|
G|*------------------------------------------------------------------------|
D|*------------------------------------------------------------------------|
A|-------------------------------------------------------------------------|
E|--1--1--1--1--1--1--1--1--1--1--1--1--1--1--3--4--4--4--4--4--4--4--4--4-|



e|-------------------------|
B|-------------------------|
G|------------------------*|
D|------------------------*|
A|-4--4--4--4--4-----------|
E|----------------6--6--6--|



Omkvæd:

e|-------------------------------------------------------------------|
B|-------------------------------------------------------------------|
G|-------------------------------------------------------------------|
D|--3---3--------------6---3------3------3-------6---3------3------3-|
A|-----------6---6-----4---1------3------3-------4---1------3------3-|
E|1---1----4---4-------4---1------1------1-------4---1------1------1-|


Tilbage til kort stykke intro
og bagefter vers.

Frem til omkvæd med fill som er op til B-stykke:

e|-------------------------------------------------------------------
B|-------------------------------------------------------------------
G|-------------------------------------------------------------------
D|--3---3--------------6---3------3------3-------6---3------3------3-
A|-----------6---6-----4---1------3------3-------4---1------3------3-
E|1---1----4---4-------4---1------1------1-------4---1------1------1-



e|----------------------------------------|
B|----------------------------------------|
G|----------------------------------------|
D|3-------------------3-------------------|
A|-------6-------------------6------------|
E|--1--4---4-4-3-1-1----1--4---4-4-3-1----|




B-Stykke: Guitaren hopper ind når Simon siger "satser". 
Du kan høre det.
Stykket er mixed meget meget lavt, 
så jeg kan godt forstå hvis det er svært
at finde ud af, og hvornår det hele skal passe ind. 
Men tro på mig, det er rigtigt.

Guitaren har en masse rumklang,
så fyr bare op for det:

e|--------------------------------------------------------------------------
B|--------------------------------------------------------------------------
G|-5-5----------------------3-3-----3-3-----3-3-----3-3-----3-3-----3-3-----
D|-----6-6-6-6-6-6-6-6--5-5-----3-3-----3-3-----3-3-----3-3-----3-3-----3-3-
A|--------------------------------------------------------------------------
E|--------------------------------------------------------------------------



e|-------------------------------------------------------------------|
B|-------------------------------------------------------------------|
G|-5-5-----5-5-----8-8-----8-8-----6-6-----6-6-----5-5---------------|
D|-----3-3-----3-3-----6-6-----6-6-----6-6-----6-6-----6-6-6-6-5-5-3-|
A|-------------------------------------------------------------------|
E|-------------------------------------------------------------------|



[ Solo ]

I soloen er der lagt mest vægt i keyboards/synthz's,
hvor guitaren er mixet meget lavt.
Men således:


e|---------------------------------------------------------------------------|
B|---------------------------------------------------------------------------|
G|*1010101010-13-13-13-13-13-13-13-13-13-12-12-12-12-12-12-12-8-8-8-8-8-8-8--|
D|*-x-x-x-x-x-x-x-x-x-x-x-x-x-x-x-x-x-x-x-x-x-x-x-x-x-x-x-x-x-x-x-x-x-x-x-x--|
A|--8-8-8-8-8-11-11-11-11-11-11-11-11-11-10-10-10-10-10-10-10-6-6-6-6-6-6-6--|
E|---------------------------------------------------------------------------|



e|-----------------------------------------------------------------------------------------|
B|-----------------------------------------------------------------------------------------|
G|101010101010101010-13-13-13-13-13-13-13-13-13-10101010101010-13-13-13-13-13-13-13-13-13-*|
D|-x-x-x-x-x-x-x-x-x-x-x-x-x-x-x-x-x-x-x-x-x-x-x-x-x-x-x-x-x-x-x-x-x-x-x-x-x-x-x-x-x-x-x--*|
A|-8-8-8-8-8-8-8-8-8-11-11-11-11-11-11-11-11-11-8-8-8-8-8-8-8--11-11-11-11-11-11-11-11-11--|
E|-----------------------------------------------------------------------------------------|


Outro efter solo:

e|---------------------------------------------------------------------------------------|
B|---------------------------------------------------------------------------------------|
G|---------------------------------------------------------------------------------------|
D|------3--------------------3--------------------3--------------------3-----------------|
A|--------------6--------------------6--------------------6--------------------6---------|
E|--1-----1---4---4-4-3-1-1----1---4---4-4-3-1-1----1---4---4-4-3-1-1----1---4---4-4-3-1-|


Det skulle være nogenlunde ligetil.
Jeg ved godt det måske ser lidt krænglet ud
men det skulle være rimelig nøjagtigt.
- Smid evt en kommentar. Tak.
184 exibições

Comentários 0

Consegui tocarAinda não conseguiram tocar essa música. Seja o primeiro!
    Não consegui tocar
    Exibir acordes »
    publicidade
    fechar